  0
SECTION
  2
HEADER
  9
$ACADVER
  1
AC1021
  9
$ACADMAINTVER
 70
    25
  9
$DWGCODEPAGE
  3
ANSI_936
  9
$LASTSAVEDBY
  1
Alvin
  9
$INSBASE
 10
0.0
 20
0.0
 30
0.0
  9
$EXTMIN
 10
-42.99711
 20
-65.68174
 30
0.0
  9
$EXTMAX
 10
32.52289
 20
-20.90003
 30
0.0
  9
$LIMMIN
 10
0.0
 20
0.0
  9
$LIMMAX
 10
12.0
 20
9.0
  9
$ORTHOMODE
 70
     0
  9
$REGENMODE
 70
     1
  9
$FILLMODE
 70
     1
  9
$QTEXTMODE
 70
     0
  9
$MIRRTEXT
 70
     1
  9
$LTSCALE
 40
1.0
  9
$ATTMODE
 70
     1
  9
$TEXTSIZE
 40
0.2
  9
$TRACEWID
 40
0.05
  9
$TEXTSTYLE
  7
Standard
  9
$CLAYER
  8
0
  9
$CELTYPE
  6
ByLayer
  9
$CECOLOR
 62
   256
  9
$CELTSCALE
 40
1.0
  9
$DISPSILH
 70
     0
  9
$DIMSCALE
 40
1.0
  9
$DIMASZ
 40
0.18
  9
$DIMEXO
 40
0.0625
  9
$DIMDLI
 40
0.38
  9
$DIMRND
 40
0.0
  9
$DIMDLE
 40
0.0
  9
$DIMEXE
 40
0.18
  9
$DIMTP
 40
0.0
  9
$DIMTM
 40
0.0
  9
$DIMTXT
 40
0.18
  9
$DIMCEN
 40
0.09
  9
$DIMTSZ
 40
0.0
  9
$DIMTOL
 70
     0
  9
$DIMLIM
 70
     0
  9
$DIMTIH
 70
     1
  9
$DIMTOH
 70
     1
  9
$DIMSE1
 70
     0
  9
$DIMSE2
 70
     0
  9
$DIMTAD
 70
     0
  9
$DIMZIN
 70
     0
  9
$DIMBLK
  1

  9
$DIMASO
 70
     1
  9
$DIMSHO
 70
     1
  9
$DIMPOST
  1

  9
$DIMAPOST
  1

  9
$DIMALT
 70
     0
  9
$DIMALTD
 70
     2
  9
$DIMALTF
 40
25.4
  9
$DIMLFAC
 40
1.0
  9
$DIMTOFL
 70
     0
  9
$DIMTVP
 40
0.0
  9
$DIMTIX
 70
     0
  9
$DIMSOXD
 70
     0
  9
$DIMSAH
 70
     0
  9
$DIMBLK1
  1

  9
$DIMBLK2
  1

  9
$DIMSTYLE
  2
Standard
  9
$DIMCLRD
 70
     0
  9
$DIMCLRE
 70
     0
  9
$DIMCLRT
 70
     0
  9
$DIMTFAC
 40
1.0
  9
$DIMGAP
 40
0.09
  9
$DIMJUST
 70
     0
  9
$DIMSD1
 70
     0
  9
$DIMSD2
 70
     0
  9
$DIMTOLJ
 70
     1
  9
$DIMTZIN
 70
     0
  9
$DIMALTZ
 70
     0
  9
$DIMALTTZ
 70
     0
  9
$DIMUPT
 70
     0
  9
$DIMDEC
 70
     4
  9
$DIMTDEC
 70
     4
  9
$DIMALTU
 70
     2
  9
$DIMALTTD
 70
     2
  9
$DIMTXSTY
  7
Standard
  9
$DIMAUNIT
 70
     0
  9
$DIMADEC
 70
     0
  9
$DIMALTRND
 40
0.0
  9
$DIMAZIN
 70
     0
  9
$DIMDSEP
 70
    46
  9
$DIMATFIT
 70
     3
  9
$DIMFRAC
 70
     0
  9
$DIMLDRBLK
  1

  9
$DIMLUNIT
 70
     2
  9
$DIMLWD
 70
    -2
  9
$DIMLWE
 70
    -2
  9
$DIMTMOVE
 70
     0
  9
$DIMFXL
 40
1.0
  9
$DIMFXLON
 70
     0
  9
$DIMJOGANG
 40
0.7853981633974483
  9
$DIMTFILL
 70
     0
  9
$DIMTFILLCLR
 70
     0
  9
$DIMARCSYM
 70
     0
  9
$DIMLTYPE
  6

  9
$DIMLTEX1
  6

  9
$DIMLTEX2
  6

  9
$LUNITS
 70
     2
  9
$LUPREC
 70
     4
  9
$SKETCHINC
 40
0.1
  9
$FILLETRAD
 40
0.5
  9
$AUNITS
 70
     0
  9
$AUPREC
 70
     0
  9
$MENU
  1
.
  9
$ELEVATION
 40
0.0
  9
$PELEVATION
 40
0.0
  9
$THICKNESS
 40
0.0
  9
$LIMCHECK
 70
     0
  9
$CHAMFERA
 40
0.0
  9
$CHAMFERB
 40
0.0
  9
$CHAMFERC
 40
0.0
  9
$CHAMFERD
 40
0.0
  9
$SKPOLY
 70
     0
  9
$TDCREATE
 40
2459055.58371338
  9
$TDUCREATE
 40
2459055.250380046
  9
$TDUPDATE
 40
2459055.583713403
  9
$TDUUPDATE
 40
2459055.250380069
  9
$TDINDWG
 40
0.0000000116
  9
$TDUSRTIMER
 40
0.0000000116
  9
$USRTIMER
 70
     1
  9
$ANGBASE
 50
0.0
  9
$ANGDIR
 70
     0
  9
$PDMODE
 70
     0
  9
$PDSIZE
 40
0.0
  9
$PLINEWID
 40
0.0
  9
$SPLFRAME
 70
     0
  9
$SPLINETYPE
 70
     6
  9
$SPLINESEGS
 70
     8
  9
$HANDSEED
  5
CB
  9
$SURFTAB1
 70
     6
  9
$SURFTAB2
 70
     6
  9
$SURFTYPE
 70
     6
  9
$SURFU
 70
     6
  9
$SURFV
 70
     6
  9
$UCSBASE
  2

  9
$UCSNAME
  2

  9
$UCSORG
 10
0.0
 20
0.0
 30
0.0
  9
$UCSXDIR
 10
1.0
 20
0.0
 30
0.0
  9
$UCSYDIR
 10
0.0
 20
1.0
 30
0.0
  9
$UCSORTHOREF
  2

  9
$UCSORTHOVIEW
 70
     0
  9
$UCSORGTOP
 10
0.0
 20
0.0
 30
0.0
  9
$UCSORGBOTTOM
 10
0.0
 20
0.0
 30
0.0
  9
$UCSORGLEFT
 10
0.0
 20
0.0
 30
0.0
  9
$UCSORGRIGHT
 10
0.0
 20
0.0
 30
0.0
  9
$UCSORGFRONT
 10
0.0
 20
0.0
 30
0.0
  9
$UCSORGBACK
 10
0.0
 20
0.0
 30
0.0
  9
$PUCSBASE
  2

  9
$PUCSNAME
  2

  9
$PUCSORG
 10
0.0
 20
0.0
 30
0.0
  9
$PUCSXDIR
 10
1.0
 20
0.0
 30
0.0
  9
$PUCSYDIR
 10
0.0
 20
1.0
 30
0.0
  9
$PUCSORTHOREF
  2

  9
$PUCSORTHOVIEW
 70
     0
  9
$PUCSORGTOP
 10
0.0
 20
0.0
 30
0.0
  9
$PUCSORGBOTTOM
 10
0.0
 20
0.0
 30
0.0
  9
$PUCSORGLEFT
 10
0.0
 20
0.0
 30
0.0
  9
$PUCSORGRIGHT
 10
0.0
 20
0.0
 30
0.0
  9
$PUCSORGFRONT
 10
0.0
 20
0.0
 30
0.0
  9
$PUCSORGBACK
 10
0.0
 20
0.0
 30
0.0
  9
$USERI1
 70
     0
  9
$USERI2
 70
     0
  9
$USERI3
 70
     0
  9
$USERI4
 70
     0
  9
$USERI5
 70
     0
  9
$USERR1
 40
0.0
  9
$USERR2
 40
0.0
  9
$USERR3
 40
0.0
  9
$USERR4
 40
0.0
  9
$USERR5
 40
0.0
  9
$WORLDVIEW
 70
     1
  9
$SHADEDGE
 70
     3
  9
$SHADEDIF
 70
    70
  9
$TILEMODE
 70
     1
  9
$MAXACTVP
 70
    64
  9
$PINSBASE
 10
0.0
 20
0.0
 30
0.0
  9
$PLIMCHECK
 70
     0
  9
$PEXTMIN
 10
1.000000000000000E+20
 20
1.000000000000000E+20
 30
1.000000000000000E+20
  9
$PEXTMAX
 10
-1.000000000000000E+20
 20
-1.000000000000000E+20
 30
-1.000000000000000E+20
  9
$PLIMMIN
 10
0.0
 20
0.0
  9
$PLIMMAX
 10
12.0
 20
9.0
  9
$UNITMODE
 70
     0
  9
$VISRETAIN
 70
     1
  9
$PLINEGEN
 70
     0
  9
$PSLTSCALE
 70
     1
  9
$TREEDEPTH
 70
  3020
  9
$CMLSTYLE
  2
Standard
  9
$CMLJUST
 70
     0
  9
$CMLSCALE
 40
1.0
  9
$PROXYGRAPHICS
 70
     1
  9
$MEASUREMENT
 70
     0
  9
$CELWEIGHT
370
    -1
  9
$ENDCAPS
280
     0
  9
$JOINSTYLE
280
     0
  9
$LWDISPLAY
290
     0
  9
$INSUNITS
 70
     5
  9
$HYPERLINKBASE
  1

  9
$STYLESHEET
  1

  9
$XEDIT
290
     1
  9
$CEPSNTYPE
380
     0
  9
$PSTYLEMODE
290
     1
  9
$FINGERPRINTGUID
  2
{b94d1013-4325-45a3-9106-f300581dbf4c}
  9
$VERSIONGUID
  2
{FAEB1C32-E019-11D5-929B-00C0DF256EC4}
  9
$EXTNAMES
290
     1
  9
$PSVPSCALE
 40
0.0
  9
$OLESTARTUP
290
     0
  9
$SORTENTS
280
   127
  9
$INDEXCTL
280
     0
  9
$HIDETEXT
280
     1
  9
$XCLIPFRAME
290
     0
  9
$HALOGAP
280
     0
  9
$OBSCOLOR
 70
   257
  9
$OBSLTYPE
280
     0
  9
$INTERSECTIONDISPLAY
280
     0
  9
$INTERSECTIONCOLOR
 70
   257
  9
$DIMASSOC
280
     2
  9
$PROJECTNAME
  1

  9
$CAMERADISPLAY
290
     0
  9
$LENSLENGTH
 40
50.0
  9
$CAMERAHEIGHT
 40
0.0
  9
$STEPSPERSEC
 40
2.0
  9
$STEPSIZE
 40
6.0
  9
$3DDWFPREC
 40
2.0
  9
$PSOLWIDTH
 40
0.25
  9
$PSOLHEIGHT
 40
4.0
  9
$LOFTANG1
 40
1.570796326794897
  9
$LOFTANG2
 40
1.570796326794897
  9
$LOFTMAG1
 40
0.0
  9
$LOFTMAG2
 40
0.0
  9
$LOFTPARAM
 70
     7
  9
$LOFTNORMALS
280
     1
  9
$LATITUDE
 40
37.795
  9
$LONGITUDE
 40
-122.394
  9
$NORTHDIRECTION
 40
0.0
  9
$TIMEZONE
 70
 -8000
  9
$LIGHTGLYPHDISPLAY
280
     1
  9
$TILEMODELIGHTSYNCH
280
     1
  9
$CMATERIAL
347
44
  9
$SOLIDHIST
280
     0
  9
$SHOWHIST
280
     1
  9
$DWFFRAME
280
     2
  9
$DGNFRAME
280
     2
  9
$REALWORLDSCALE
290
     1
  9
$INTERFERECOLOR
 62
   256
  9
$CSHADOW
280
     0
  9
$SHADOWPLANELOCATION
 40
0.0
  0
ENDSEC
  0
SECTION
  2
CLASSES
  0
CLASS
  1
ACDBDICTIONARYWDFLT
  2
AcDbDictionaryWithDefault
  3
ObjectDBX Classes
 90
        0
 91
        3
280
     0
281
     0
  0
CLASS
  1
VISUALSTYLE
  2
AcDbVisualStyle
  3
ObjectDBX Classes
 90
     4095
 91
        3
280
     0
281
     0
  0
CLASS
  1
MATERIAL
  2
AcDbMaterial
  3
ObjectDBX Classes
 90
     1153
 91
        3
280
     0
281
     0
  0
CLASS
  1
SCALE
  2
AcDbScale
  3
ObjectDBX Classes
 90
     1153
 91
        3
280
     0
281
     0
  0
CLASS
  1
TABLESTYLE
  2
AcDbTableStyle
  3
ObjectDBX Classes
 90
     4095
 91
        3
280
     0
281
     0
  0
CLASS
  1
MLEADERSTYLE
  2
AcDbMLeaderStyle
  3
ACDB_MLEADERSTYLE_CLASS
 90
     4095
 91
        3
280
     0
281
     0
  0
CLASS
  1
SUN
  2
AcDbSun
  3
SCENEOE
 90
     1153
 91
        3
280
     0
281
     0
  0
CLASS
  1
DICTIONARYVAR
  2
AcDbDictionaryVar
  3
ObjectDBX Classes
 90
        0
 91
        3
280
     0
281
     0
  0
CLASS
  1
CELLSTYLEMAP
  2
AcDbCellStyleMap
  3
ObjectDBX Classes
 90
     1152
 91
        3
280
     0
281
     0
  0
ENDSEC
  0
SECTION
  2
TABLES
  0
TABLE
  2
VPORT
  5
8
330
0
100
AcDbSymbolTable
 70
     1
  0
VPORT
  5
29
330
8
100
AcDbSymbolTableRecord
100
AcDbViewportTableRecord
  2
*Active
 70
     0
 10
0.0
 20
0.0
 11
1.0
 21
1.0
 12
10.42990654205607
 22
4.5
 13
0.0
 23
0.0
 14
0.5
 24
0.5
 15
0.5
 25
0.5
 16
0.0
 26
0.0
 36
1.0
 17
0.0
 27
0.0
 37
0.0
 40
9.0
 41
1.972972972850329
 42
50.0
 43
0.0
 44
0.0
 50
0.0
 51
0.0
 71
     0
 72
   100
 73
     1
 74
     3
 75
     0
 76
     0
 77
     0
 78
     0
281
     0
 65
     1
110
0.0
120
0.0
130
0.0
111
1.0
121
0.0
131
0.0
112
0.0
122
1.0
132
0.0
 79
     0
146
0.0
348
2F
 60
     3
 61
     5
292
     1
282
     1
141
0.0
142
0.0
 63
   250
361
6D
  0
ENDTAB
  0
TABLE
  2
LTYPE
  5
5
330
0
100
AcDbSymbolTable
 70
     1
  0
LTYPE
  5
14
330
5
100
AcDbSymbolTableRecord
100
AcDbLinetypeTableRecord
  2
ByBlock
 70
     0
  3

 72
    65
 73
     0
 40
0.0
  0
LTYPE
  5
15
330
5
100
AcDbSymbolTableRecord
100
AcDbLinetypeTableRecord
  2
ByLayer
 70
     0
  3

 72
    65
 73
     0
 40
0.0
  0
LTYPE
  5
16
330
5
100
AcDbSymbolTableRecord
100
AcDbLinetypeTableRecord
  2
Continuous
 70
     0
  3
Solid line
 72
    65
 73
     0
 40
0.0
  0
ENDTAB
  0
TABLE
  2
LAYER
  5
2
330
0
100
AcDbSymbolTable
 70
     2
  0
LAYER
  5
10
330
2
100
AcDbSymbolTableRecord
100
AcDbLayerTableRecord
  2
0
 70
     0
 62
     7
  6
Continuous
370
    -3
390
F
347
46
  0
LAYER
  5
6F
330
2
100
AcDbSymbolTableRecord
100
AcDbLayerTableRecord
  2
layer 1
 70
     0
 62
     7
  6
Continuous
370
    -3
390
F
347
46
  0
ENDTAB
  0
TABLE
  2
STYLE
  5
3
330
0
100
AcDbSymbolTable
 70
     1
  0
STYLE
  5
11
330
3
100
AcDbSymbolTableRecord
100
AcDbTextStyleTableRecord
  2
Standard
 70
     0
 40
0.0
 41
1.0
 50
0.0
 71
     0
 42
0.2
  3
txt
  4

  0
ENDTAB
  0
TABLE
  2
VIEW
  5
6
330
0
100
AcDbSymbolTable
 70
     0
  0
ENDTAB
  0
TABLE
  2
UCS
  5
7
330
0
100
AcDbSymbolTable
 70
     0
  0
ENDTAB
  0
TABLE
  2
APPID
  5
9
330
0
100
AcDbSymbolTable
 70
     3
  0
APPID
  5
12
330
9
100
AcDbSymbolTableRecord
100
AcDbRegAppTableRecord
  2
ACAD
 70
     0
  0
APPID
  5
6E
330
9
100
AcDbSymbolTableRecord
100
AcDbRegAppTableRecord
  2
ODA
 70
     0
  0
APPID
  5
C3
330
9
100
AcDbSymbolTableRecord
100
AcDbRegAppTableRecord
  2
ACAD_MLEADERVER
 70
     0
  0
ENDTAB
  0
TABLE
  2
DIMSTYLE
  5
A
330
0
100
AcDbSymbolTable
 70
     1
100
AcDbDimStyleTable
  0
DIMSTYLE
105
27
330
A
100
AcDbSymbolTableRecord
100
AcDbDimStyleTableRecord
  2
Standard
 70
     0
178
     0
340
11
  0
ENDTAB
  0
TABLE
  2
BLOCK_RECORD
  5
1
330
0
100
AcDbSymbolTable
 70
     1
  0
BLOCK_RECORD
  5
1F
330
1
100
AcDbSymbolTableRecord
100
AcDbBlockTableRecord
  2
*Model_Space
340
22
 70
     0
280
     1
281
     0
  0
BLOCK_RECORD
  5
1B
330
1
100
AcDbSymbolTableRecord
100
AcDbBlockTableRecord
  2
*Paper_Space
340
1E
 70
     0
280
     1
281
     0
  0
BLOCK_RECORD
  5
23
330
1
100
AcDbSymbolTableRecord
100
AcDbBlockTableRecord
  2
*Paper_Space0
340
26
 70
     0
280
     1
281
     0
  0
ENDTAB
  0
ENDSEC
  0
SECTION
  2
BLOCKS
  0
BLOCK
  5
20
330
1F
100
AcDbEntity
  8
0
100
AcDbBlockBegin
  2
*Model_Space
 70
     0
 10
0.0
 20
0.0
 30
0.0
  3
*Model_Space
  1

  0
ENDBLK
  5
21
330
1F
100
AcDbEntity
  8
0
100
AcDbBlockEnd
  0
BLOCK
  5
1C
330
1B
100
AcDbEntity
 67
     1
  8
0
100
AcDbBlockBegin
  2
*Paper_Space
 70
     0
 10
0.0
 20
0.0
 30
0.0
  3
*Paper_Space
  1

  0
ENDBLK
  5
1D
330
1B
100
AcDbEntity
 67
     1
  8
0
100
AcDbBlockEnd
  0
BLOCK
  5
24
330
23
100
AcDbEntity
  8
0
100
AcDbBlockBegin
  2
*Paper_Space0
 70
     0
 10
0.0
 20
0.0
 30
0.0
  3
*Paper_Space0
  1

  0
ENDBLK
  5
25
330
23
100
AcDbEntity
  8
0
100
AcDbBlockEnd
  0
ENDSEC
  0
SECTION
  2
ENTITIES
  0
SPLINE
  5
70
330
1F
100
AcDbEntity
  8
layer 1
 62
   250
370
    20
100
AcDbSpline
210
0.0
220
0.0
230
1.0
 70
    11
 71
     3
 72
   128
 73
   124
 74
     0
 42
0.0000000001
 43
0.0000000001
 40
0.0
 40
0.0
 40
0.0
 40
0.0
 40
0.024390243902439
 40
0.024390243902439
 40
0.024390243902439
 40
0.0487804878048781
 40
0.0487804878048781
 40
0.0487804878048781
 40
0.0731707317073171
 40
0.0731707317073171
 40
0.0731707317073171
 40
0.0975609756097561
 40
0.0975609756097561
 40
0.0975609756097561
 40
0.1219512195121951
 40
0.1219512195121951
 40
0.1219512195121951
 40
0.1463414634146342
 40
0.1463414634146342
 40
0.1463414634146342
 40
0.1707317073170732
 40
0.1707317073170732
 40
0.1707317073170732
 40
0.1951219512195122
 40
0.1951219512195122
 40
0.1951219512195122
 40
0.2195121951219512
 40
0.2195121951219512
 40
0.2195121951219512
 40
0.2439024390243902
 40
0.2439024390243902
 40
0.2439024390243902
 40
0.2682926829268293
 40
0.2682926829268293
 40
0.2682926829268293
 40
0.2926829268292683
 40
0.2926829268292683
 40
0.2926829268292683
 40
0.3170731707317073
 40
0.3170731707317073
 40
0.3170731707317073
 40
0.3414634146341464
 40
0.3414634146341464
 40
0.3414634146341464
 40
0.3658536585365854
 40
0.3658536585365854
 40
0.3658536585365854
 40
0.3902439024390244
 40
0.3902439024390244
 40
0.3902439024390244
 40
0.4146341463414634
 40
0.4146341463414634
 40
0.4146341463414634
 40
0.4390243902439024
 40
0.4390243902439024
 40
0.4390243902439024
 40
0.4634146341463415
 40
0.4634146341463415
 40
0.4634146341463415
 40
0.4878048780487805
 40
0.4878048780487805
 40
0.4878048780487805
 40
0.5121951219512195
 40
0.5121951219512195
 40
0.5121951219512195
 40
0.5365853658536586
 40
0.5365853658536586
 40
0.5365853658536586
 40
0.5609756097560976
 40
0.5609756097560976
 40
0.5609756097560976
 40
0.5853658536585367
 40
0.5853658536585367
 40
0.5853658536585367
 40
0.6097560975609756
 40
0.6097560975609756
 40
0.6097560975609756
 40
0.6341463414634146
 40
0.6341463414634146
 40
0.6341463414634146
 40
0.6585365853658537
 40
0.6585365853658537
 40
0.6585365853658537
 40
0.6829268292682927
 40
0.6829268292682927
 40
0.6829268292682927
 40
0.7073170731707318
 40
0.7073170731707318
 40
0.7073170731707318
 40
0.7317073170731707
 40
0.7317073170731707
 40
0.7317073170731707
 40
0.7560975609756098
 40
0.7560975609756098
 40
0.7560975609756098
 40
0.7804878048780488
 40
0.7804878048780488
 40
0.7804878048780488
 40
0.8048780487804879
 40
0.8048780487804879
 40
0.8048780487804879
 40
0.8292682926829269
 40
0.8292682926829269
 40
0.8292682926829269
 40
0.8536585365853658
 40
0.8536585365853658
 40
0.8536585365853658
 40
0.8780487804878049
 40
0.8780487804878049
 40
0.8780487804878049
 40
0.9024390243902439
 40
0.9024390243902439
 40
0.9024390243902439
 40
0.926829268292683
 40
0.926829268292683
 40
0.926829268292683
 40
0.951219512195122
 40
0.951219512195122
 40
0.951219512195122
 40
0.975609756097561
 40
0.975609756097561
 40
0.975609756097561
 40
1.0
 40
1.0
 40
1.0
 40
1.0
 10
-42.58182
 20
-33.70047
 30
0.0
 10
-42.57188
 20
-33.53945
 30
0.0
 10
-42.55201
 20
-33.28501
 30
0.0
 10
-42.39495
 20
-33.04248
 30
0.0
 10
-42.23792
 20
-32.79998
 30
0.0
 10
-41.94371
 20
-32.56938
 30
0.0
 10
-41.6495
 20
-32.41633
 30
0.0
 10
-41.35529
 20
-32.26324
 30
0.0
 10
-41.06112
 20
-32.18773
 30
0.0
 10
-40.92593
 20
-32.14796
 30
0.0
 10
-40.79076
 20
-32.1082
 30
0.0
 10
-40.81464
 20
-32.10421
 30
0.0
 10
-40.83848
 20
-31.99091
 30
0.0
 10
-40.92201
 20
-31.59403
 30
0.0
 10
-40.81233
 20
-31.11575
 30
0.0
 10
-40.38725
 20
-30.87175
 30
0.0
 10
-40.15865
 20
-30.74055
 30
0.0
 10
-39.84852
 20
-30.69286
 30
0.0
 10
-39.61199
 20
-30.75846
 30
0.0
 10
-39.29484
 20
-30.84638
 30
0.0
 10
-39.0592
 20
-31.16921
 30
0.0
 10
-38.95996
 20
-31.37864
 30
0.0
 10
-38.91716
 20
-31.46899
 30
0.0
 10
-38.88921
 20
-31.23041
 30
0.0
 10
-38.68364
 20
-31.07849
 30
0.0
 10
-38.55587
 20
-30.98405
 30
0.0
 10
-38.39724
 20
-30.99952
 30
0.0
 10
-38.30394
 20
-31.08247
 30
0.0
 10
-38.22959
 20
-31.14857
 30
0.0
 10
-38.32408
 20
-30.48143
 30
0.0
 10
-37.67978
 20
-30.4563
 30
0.0
 10
-37.34697
 20
-30.44332
 30
0.0
 10
-37.21561
 20
-30.61632
 30
0.0
 10
-37.23252
 20
-30.49801
 30
0.0
 10
-37.24048
 20
-30.44237
 30
0.0
 10
-37.2683
 20
-30.32311
 30
0.0
 10
-37.21462
 20
-30.20583
 30
0.0
 10
-37.16095
 20
-30.08854
 30
0.0
 10
-37.02577
 20
-29.97326
 30
0.0
 10
-36.88067
 20
-29.94741
 30
0.0
 10
-36.6245
 20
-29.90178
 30
0.0
 10
-36.3738
 20
-30.11131
 30
0.0
 10
-36.25251
 20
-30.17602
 30
0.0
 10
-36.17572
 20
-30.217
 30
0.0
 10
-36.37533
 20
-29.74059
 30
0.0
 10
-35.67801
 20
-29.68104
 30
0.0
 10
-35.34996
 20
-29.65301
 30
0.0
 10
-35.24604
 20
-29.75235
 30
0.0
 10
-35.16115
 20
-29.64923
 30
0.0
 10
-34.97981
 20
-29.42896
 30
0.0
 10
-34.67292
 20
-29.65498
 30
0.0
 10
-34.60854
 20
-29.61743
 30
0.0
 10
-34.58469
 20
-29.60353
 30
0.0
 10
-34.55688
 20
-29.56377
 30
0.0
 10
-34.49723
 20
-29.54389
 30
0.0
 10
-34.4376
 20
-29.52401
 30
0.0
 10
-34.34616
 20
-29.52401
 30
0.0
 10
-34.27857
 20
-29.52002
 30
0.0
 10
-34.21099
 20
-29.51604
 30
0.0
 10
-34.16724
 20
-29.50811
 30
0.0
 10
-33.28861
 20
-28.95748
 30
0.0
 10
-33.28861
 20
-28.95748
 30
0.0
 10
-28.97301
 20
-26.21025
 30
0.0
 10
-28.97301
 20
-26.21025
 30
0.0
 10
-28.97301
 20
-26.21025
 30
0.0
 10
-28.96962
 20
-26.4957
 30
0.0
 10
-28.96962
 20
-26.4957
 30
0.0
 10
-28.96962
 20
-26.4957
 30
0.0
 10
-28.66962
 20
-26.4957
 30
0.0
 10
-28.66962
 20
-26.4957
 30
0.0
 10
-28.66962
 20
-26.4957
 30
0.0
 10
-28.66962
 20
-27.2957
 30
0.0
 10
-28.66962
 20
-27.2957
 30
0.0
 10
-28.66962
 20
-27.2957
 30
0.0
 10
-28.96962
 20
-27.2957
 30
0.0
 10
-28.96962
 20
-27.2957
 30
0.0
 10
-28.96962
 20
-27.2957
 30
0.0
 10
-28.99488
 20
-27.53219
 30
0.0
 10
-28.99488
 20
-27.53219
 30
0.0
 10
-30.37047
 20
-28.49033
 30
0.0
 10
-31.74606
 20
-29.44845
 30
0.0
 10
-32.42987
 20
-29.95335
 30
0.0
 10
-33.36958
 20
-30.64721
 30
0.0
 10
-33.01213
 20
-30.48934
 30
0.0
 10
-33.12363
 20
-30.63519
 30
0.0
 10
-33.24739
 20
-30.79705
 30
0.0
 10
-33.3982
 20
-30.67197
 30
0.0
 10
-33.49336
 20
-30.7048
 30
0.0
 10
-33.55102
 20
-30.72467
 30
0.0
 10
-33.57489
 20
-30.80416
 30
0.0
 10
-33.62855
 20
-30.8479
 30
0.0
 10
-33.75394
 20
-30.95008
 30
0.0
 10
-33.8214
 20
-30.83809
 30
0.0
 10
-33.90088
 20
-31.10035
 30
0.0
 10
-34.03196
 20
-31.53293
 30
0.0
 10
-33.88419
 20
-31.9404
 30
0.0
 10
-34.20502
 20
-32.10421
 30
0.0
 10
-34.40233
 20
-32.20496
 30
0.0
 10
-34.58325
 20
-32.14909
 30
0.0
 10
-34.55688
 20
-32.24138
 30
0.0
 10
-34.52404
 20
-32.35633
 30
0.0
 10
-34.35804
 20
-32.59343
 30
0.0
 10
-34.50319
 20
-32.69857
 30
0.0
 10
-34.81716
 20
-32.926
 30
0.0
 10
-35.40344
 20
-32.80649
 30
0.0
 10
-35.04388
 20
-32.92123
 30
0.0
 10
-34.52213
 20
-33.08776
 30
0.0
 10
-34.59337
 20
-33.22717
 30
0.0
 10
-34.43959
 20
-33.27705
 30
0.0
 10
-34.32804
 20
-33.31322
 30
0.0
 10
-34.11581
 20
-33.07504
 30
0.0
 10
-33.81937
 20
-33.3009
 30
0.0
 10
-33.59324
 20
-33.47319
 30
0.0
 10
-33.39109
 20
-33.92725
 30
0.0
 10
-33.49137
 20
-34.12786
 30
0.0
 10
-36.52883
 20
-34.12786
 30
0.0
 10
-39.56625
 20
-34.12786
 30
0.0
 10
-41.08497
 20
-34.12189
 30
0.0
 10
-42.60368
 20
-34.11593
 30
0.0
 10
-42.60368
 20
-34.10399
 30
0.0
 10
-42.6017
 20
-34.08213
 30
0.0
 10
-42.6017
 20
-34.08213
 30
0.0
 10
-42.58182
 20
-33.70047
 30
0.0
 10
-42.58182
 20
-33.70047
 30
0.0
  0
SPLINE
  5
71
330
1F
100
AcDbEntity
  8
layer 1
 62
   250
370
    20
100
AcDbSpline
210
0.0
220
0.0
230
1.0
 70
    11
 71
     3
 72
   323
 73
   319
 74
     0
 42
0.0000000001
 43
0.0000000001
 40
0.0
 40
0.0
 40
0.0
 40
0.0
 40
0.0094339622641509
 40
0.0094339622641509
 40
0.0094339622641509
 40
0.0188679245283019
 40
0.0188679245283019
 40
0.0188679245283019
 40
0.0283018867924528
 40
0.0283018867924528
 40
0.0283018867924528
 40
0.0377358490566038
 40
0.0377358490566038
 40
0.0377358490566038
 40
0.0471698113207547
 40
0.0471698113207547
 40
0.0471698113207547
 40
0.0566037735849057
 40
0.0566037735849057
 40
0.0566037735849057
 40
0.0660377358490566
 40
0.0660377358490566
 40
0.0660377358490566
 40
0.0754716981132075
 40
0.0754716981132075
 40
0.0754716981132075
 40
0.0849056603773585
 40
0.0849056603773585
 40
0.0849056603773585
 40
0.0943396226415094
 40
0.0943396226415094
 40
0.0943396226415094
 40
0.1037735849056604
 40
0.1037735849056604
 40
0.1037735849056604
 40
0.1132075471698113
 40
0.1132075471698113
 40
0.1132075471698113
 40
0.1226415094339623
 40
0.1226415094339623
 40
0.1226415094339623
 40
0.1320754716981132
 40
0.1320754716981132
 40
0.1320754716981132
 40
0.1415094339622641
 40
0.1415094339622641
 40
0.1415094339622641
 40
0.1509433962264151
 40
0.1509433962264151
 40
0.1509433962264151
 40
0.160377358490566
 40
0.160377358490566
 40
0.160377358490566
 40
0.169811320754717
 40
0.169811320754717
 40
0.169811320754717
 40
0.1792452830188679
 40
0.1792452830188679
 40
0.1792452830188679
 40
0.1886792452830189
 40
0.1886792452830189
 40
0.1886792452830189
 40
0.1981132075471698
 40
0.1981132075471698
 40
0.1981132075471698
 40
0.2075471698113207
 40
0.2075471698113207
 40
0.2075471698113207
 40
0.2169811320754717
 40
0.2169811320754717
 40
0.2169811320754717
 40
0.2264150943396226
 40
0.2264150943396226
 40
0.2264150943396226
 40
0.2358490566037736
 40
0.2358490566037736
 40
0.2358490566037736
 40
0.2452830188679245
 40
0.2452830188679245
 40
0.2452830188679245
 40
0.2547169811320755
 40
0.2547169811320755
 40
0.2547169811320755
 40
0.2641509433962264
 40
0.2641509433962264
 40
0.2641509433962264
 40
0.2735849056603774
 40
0.2735849056603774
 40
0.2735849056603774
 40
0.2830188679245283
 40
0.2830188679245283
 40
0.2830188679245283
 40
0.2924528301886792
 40
0.2924528301886792
 40
0.2924528301886792
 40
0.3018867924528302
 40
0.3018867924528302
 40
0.3018867924528302
 40
0.3113207547169811
 40
0.3113207547169811
 40
0.3113207547169811
 40
0.3207547169811321
 40
0.3207547169811321
 40
0.3207547169811321
 40
0.330188679245283
 40
0.330188679245283
 40
0.330188679245283
 40
0.3396226415094339
 40
0.3396226415094339
 40
0.3396226415094339
 40
0.3490566037735849
 40
0.3490566037735849
 40
0.3490566037735849
 40
0.3584905660377358
 40
0.3584905660377358
 40
0.3584905660377358
 40
0.3679245283018868
 40
0.3679245283018868
 40
0.3679245283018868
 40
0.3773584905660377
 40
0.3773584905660377
 40
0.3773584905660377
 40
0.3867924528301886
 40
0.3867924528301886
 40
0.3867924528301886
 40
0.3962264150943396
 40
0.3962264150943396
 40
0.3962264150943396
 40
0.4056603773584905
 40
0.4056603773584905
 40
0.4056603773584905
 40
0.4150943396226415
 40
0.4150943396226415
 40
0.4150943396226415
 40
0.4245283018867924
 40
0.4245283018867924
 40
0.4245283018867924
 40
0.4339622641509434
 40
0.4339622641509434
 40
0.4339622641509434
 40
0.4433962264150943
 40
0.4433962264150943
 40
0.4433962264150943
 40
0.4528301886792453
 40
0.4528301886792453
 40
0.4528301886792453
 40
0.4622641509433962
 40
0.4622641509433962
 40
0.4622641509433962
 40
0.4716981132075472
 40
0.4716981132075472
 40
0.4716981132075472
 40
0.4811320754716981
 40
0.4811320754716981
 40
0.4811320754716981
 40
0.4905660377358491
 40
0.4905660377358491
 40
0.4905660377358491
 40
0.5
 40
0.5
 40
0.5
 40
0.5094339622641509
 40
0.5094339622641509
 40
0.5094339622641509
 40
0.5188679245283019
 40
0.5188679245283019
 40
0.5188679245283019
 40
0.5283018867924528
 40
0.5283018867924528
 40
0.5283018867924528
 40
0.5377358490566038
 40
0.5377358490566038
 40
0.5377358490566038
 40
0.5471698113207547
 40
0.5471698113207547
 40
0.5471698113207547
 40
0.5566037735849056
 40
0.5566037735849056
 40
0.5566037735849056
 40
0.5660377358490566
 40
0.5660377358490566
 40
0.5660377358490566
 40
0.5754716981132075
 40
0.5754716981132075
 40
0.5754716981132075
 40
0.5849056603773585
 40
0.5849056603773585
 40
0.5849056603773585
 40
0.5943396226415094
 40
0.5943396226415094
 40
0.5943396226415094
 40
0.6037735849056604
 40
0.6037735849056604
 40
0.6037735849056604
 40
0.6132075471698113
 40
0.6132075471698113
 40
0.6132075471698113
 40
0.6226415094339622
 40
0.6226415094339622
 40
0.6226415094339622
 40
0.6320754716981132
 40
0.6320754716981132
 40
0.6320754716981132
 40
0.6415094339622641
 40
0.6415094339622641
 40
0.6415094339622641
 40
0.6509433962264151
 40
0.6509433962264151
 40
0.6509433962264151
 40
0.660377358490566
 40
0.660377358490566
 40
0.660377358490566
 40
0.6698113207547169
 40
0.6698113207547169
 40
0.6698113207547169
 40
0.6792452830188679
 40
0.6792452830188679
 40
0.6792452830188679
 40
0.6886792452830188
 40
0.6886792452830188
 40
0.6886792452830188
 40
0.6981132075471698
 40
0.6981132075471698
 40
0.6981132075471698
 40
0.7075471698113207
 40
0.7075471698113207
 40
0.7075471698113207
 40
0.7169811320754716
 40
0.7169811320754716
 40
0.7169811320754716
 40
0.7264150943396226
 40
0.7264150943396226
 40
0.7264150943396226
 40
0.7358490566037735
 40
0.7358490566037735
 40
0.7358490566037735
 40
0.7452830188679245
 40
0.7452830188679245
 40
0.7452830188679245
 40
0.7547169811320754
 40
0.7547169811320754
 40
0.7547169811320754
 40
0.7641509433962264
 40
0.7641509433962264
 40
0.7641509433962264
 40
0.7735849056603773
 40
0.7735849056603773
 40
0.7735849056603773
 40
0.7830188679245282
 40
0.7830188679245282
 40
0.7830188679245282
 40
0.7924528301886792
 40
0.7924528301886792
 40
0.7924528301886792
 40
0.8018867924528301
 40
0.8018867924528301
 40
0.8018867924528301
 40
0.8113207547169811
 40
0.8113207547169811
 40
0.8113207547169811
 40
0.820754716981132
 40
0.820754716981132
 40
0.820754716981132
 40
0.830188679245283
 40
0.830188679245283
 40
0.830188679245283
 40
0.8396226415094339
 40
0.8396226415094339
 40
0.8396226415094339
 40
0.8490566037735848
 40
0.8490566037735848
 40
0.8490566037735848
 40
0.8584905660377358
 40
0.8584905660377358
 40
0.8584905660377358
 40
0.8679245283018867
 40
0.8679245283018867
 40
0.8679245283018867
 40
0.8773584905660377
 40
0.8773584905660377
 40
0.8773584905660377
 40
0.8867924528301886
 40
0.8867924528301886
 40
0.8867924528301886
 40
0.8962264150943395
 40
0.8962264150943395
 40
0.8962264150943395
 40
0.9056603773584906
 40
0.9056603773584906
 40
0.9056603773584906
 40
0.9150943396226415
 40
0.9150943396226415
 40
0.9150943396226415
 40
0.9245283018867925
 40
0.9245283018867925
 40
0.9245283018867925
 40
0.9339622641509434
 40
0.9339622641509434
 40
0.9339622641509434
 40
0.9433962264150944
 40
0.9433962264150944
 40
0.9433962264150944
 40
0.9528301886792453
 40
0.9528301886792453
 40
0.9528301886792453
 40
0.9622641509433962
 40
0.9622641509433962
 40
0.9622641509433962
 40
0.9716981132075472
 40
0.9716981132075472
 40
0.9716981132075472
 40
0.9811320754716981
 40
0.9811320754716981
 40
0.9811320754716981
 40
0.9905660377358491
 40
0.9905660377358491
 40
0.9905660377358491
 40
1.0
 40
1.0
 40
1.0
 40
1.0
 10
-4.53899
 20
-22.45929
 30
0.0
 10
-4.59123
 20
-22.37695
 30
0.0
 10
-4.68162
 20
-22.31389
 30
0.0
 10
-4.68162
 20
-22.20212
 30
0.0
 10
-4.68162
 20
-22.01204
 30
0.0
 10
-4.6989
 20
-22.02351
 30
0.0
 10
-4.74729
 20
-21.8058
 30
0.0
 10
-4.78594
 20
-21.63188
 30
0.0
 10
-4.78564
 20
-21.4794
 30
0.0
 10
-4.66023
 20
-21.33082
 30
0.0
 10
-4.58997
 20
-21.24757
 30
0.0
 10
-4.47696
 20
-21.16662
 30
0.0
 10
-4.3876
 20
-21.12921
 30
0.0
 10
-4.29826
 20
-21.09179
 30
0.0
 10
-4.23258
 20
-21.09788
 30
0.0
 10
-4.14705
 20
-21.07575
 30
0.0
 10
-3.93095
 20
-21.0198
 30
0.0
 10
-3.86117
 20
-20.9255
 30
0.0
 10
-3.62089
 20
-21.04673
 30
0.0
 10
-3.53766
 20
-21.08872
 30
0.0
 10
-3.4445
 20
-21.14677
 30
0.0
 10
-3.37729
 20
-21.18112
 30
0.0
 10
-3.31348
 20
-21.21375
 30
0.0
 10
-3.19345
 20
-21.2399
 30
0.0
 10
-3.34674
 20
-21.29949
 30
0.0
 10
-3.42018
 20
-21.32803
 30
0.0
 10
-3.34733
 20
-21.31795
 30
0.0
 10
-3.33758
 20
-21.41329
 30
0.0
 10
-3.32731
 20
-21.51364
 30
0.0
 10
-3.49218
 20
-21.40807
 30
0.0
 10
-3.43227
 20
-21.56448
 30
0.0
 10
-3.40716
 20
-21.63
 30
0.0
 10
-3.27416
 20
-21.8071
 30
0.0
 10
-3.38036
 20
-21.88674
 30
0.0
 10
-3.47247
 20
-21.95582
 30
0.0
 10
-3.25622
 20
-22.0991
 30
0.0
 10
-3.39104
 20
-22.13952
 30
0.0
 10
-3.4677
 20
-22.16252
 30
0.0
 10
-3.35567
 20
-22.38562
 30
0.0
 10
-3.43227
 20
-22.47551
 30
0.0
 10
-3.50354
 20
-22.55915
 30
0.0
 10
-3.64964
 20
-22.61192
 30
0.0
 10
-3.66748
 20
-22.64124
 30
0.0
 10
-3.68415
 20
-22.66863
 30
0.0
 10
-3.68949
 20
-22.78016
 30
0.0
 10
-3.66136
 20
-22.82451
 30
0.0
 10
-3.62032
 20
-22.88925
 30
0.0
 10
-3.35639
 20
-23.01405
 30
0.0
 10
-3.26885
 20
-23.04063
 30
0.0
 10
-3.13294
 20
-23.0819
 30
0.0
 10
-3.01627
 20
-23.0501
 30
0.0
 10
-2.89313
 20
-23.08798
 30
0.0
 10
-2.85342
 20
-23.10019
 30
0.0
 10
-2.83205
 20
-23.11699
 30
0.0
 10
-2.79539
 20
-23.12081
 30
0.0
 10
-2.72044
 20
-23.12861
 30
0.0
 10
-2.59363
 20
-23.10515
 30
0.0
 10
-2.51055
 20
-23.28347
 30
0.0
 10
-2.44844
 20
-23.4168
 30
0.0
 10
-2.49513
 20
-23.49339
 30
0.0
 10
-2.44335
 20
-23.55686
 30
0.0
 10
-2.29452
 20
-23.73928
 30
0.0
 10
-2.27286
 20
-24.22441
 30
0.0
 10
-2.27381
 20
-24.52975
 30
0.0
 10
-2.27459
 20
-24.77716
 30
0.0
 10
-2.30207
 20
-24.97266
 30
0.0
 10
-2.32955
 20
-25.08644
 30
0.0
 10
-2.36003
 20
-25.21257
 30
0.0
 10
-2.43789
 20
-25.31357
 30
0.0
 10
-2.39065
 20
-25.35371
 30
0.0
 10
-2.37537
 20
-25.3667
 30
0.0
 10
-2.34789
 20
-25.35449
 30
0.0
 10
-2.18141
 20
-25.30714
 30
0.0
 10
-1.99837
 20
-25.25509
 30
0.0
 10
-1.26137
 20
-25.06836
 30
0.0
 10
-1.12451
 20
-24.99863
 30
0.0
 10
-0.95138
 20
-24.91043
 30
0.0
 10
-0.89671
 20
-24.81911
 30
0.0
 10
-0.60752
 20
-24.86041
 30
0.0
 10
-0.25575
 20
-24.91064
 30
0.0
 10
-0.36265
 20
-25.1108
 30
0.0
 10
-0.53345
 20
-25.06811
 30
0.0
 10
-0.63773
 20
-25.04205
 30
0.0
 10
-0.65025
 20
-24.95278
 30
0.0
 10
-0.90229
 20
-25.02917
 30
0.0
 10
-1.07069
 20
-25.0802
 30
0.0
 10
-1.14276
 20
-25.12581
 30
0.0
 10
-1.24593
 20
-25.25826
 30
0.0
 10
-1.41936
 20
-25.48085
 30
0.0
 10
-1.43404
 20
-25.60692
 30
0.0
 10
-1.46053
 20
-25.87453
 30
0.0
 10
-1.46817
 20
-25.95166
 30
0.0
 10
-1.47274
 20
-25.96084
 30
0.0
 10
-1.63997
 20
-26.10668
 30
0.0
 10
-1.80723
 20
-26.25255
 30
0.0
 10
-2.13712
 20
-26.5351
 30
0.0
 10
-2.34177
 20
-26.70845
 30
0.0
 10
-2.9558
 20
-27.22854
 30
0.0
 10
-2.68601
 20
-26.93473
 30
0.0
 10
-2.47773
 20
-27.42244
 30
0.0
 10
-2.33226
 20
-27.76303
 30
0.0
 10
-2.34812
 20
-28.16766
 30
0.0
 10
-2.22494
 20
-28.52135
 30
0.0
 10
-2.10904
 20
-28.85413
 30
0.0
 10
-1.57937
 20
-29.8384
 30
0.0
 10
-1.63922
 20
-30.13419
 30
0.0
 10
-1.65296
 20
-30.20216
 30
0.0
 10
-1.68199
 20
-30.28769
 30
0.0
 10
-1.65679
 20
-30.40529
 30
0.0
 10
-1.6316
 20
-30.52289
 30
0.0
 10
-1.55216
 20
-30.67256
 30
0.0
 10
-1.46511
 20
-30.86654
 30
0.0
 10
-1.37805
 20
-31.06051
 30
0.0
 10
-1.28336
 20
-31.29876
 30
0.0
 10
-1.22838
 20
-31.47898
 30
0.0
 10
-1.10949
 20
-31.86872
 30
0.0
 10
-1.20117
 20
-31.82398
 30
0.0
 10
-0.99086
 20
-32.10061
 30
0.0
 10
-0.76227
 20
-32.40131
 30
0.0
 10
-0.65696
 20
-32.55779
 30
0.0
 10
-0.32727
 20
-32.68479
 30
0.0
 10
-0.15087
 20
-32.75275
 30
0.0
 10
-0.07568
 20
-32.78615
 30
0.0
 10
-0.0554
 20
-32.93832
 30
0.0
 10
-0.05084
 20
-32.97269
 30
0.0
 10
-0.04936
 20
-32.98095
 30
0.0
 10
-0.32344
 20
-32.98873
 30
0.0
 10
-0.32344
 20
-32.98873
 30
0.0
 10
-0.47479
 20
-32.99303
 30
0.0
 10
-0.47479
 20
-32.99303
 30
0.0
 10
-0.47479
 20
-32.99303
 30
0.0
 10
-0.47479
 20
-33.29303
 30
0.0
 10
-0.47479
 20
-33.29303
 30
0.0
 10
-0.47479
 20
-33.29303
 30
0.0
 10
-1.27479
 20
-33.29303
 30
0.0
 10
-1.27479
 20
-33.29303
 30
0.0
 10
-1.27479
 20
-33.29303
 30
0.0
 10
-1.27479
 20
-32.99303
 30
0.0
 10
-1.27479
 20
-32.99303
 30
0.0
 10
-1.27479
 20
-32.99303
 30
0.0
 10
-1.42615
 20
-32.99102
 30
0.0
 10
-1.42615
 20
-32.99102
 30
0.0
 10
-1.76389
 20
-32.98653
 30
0.0
 10
-1.72001
 20
-33.00549
 30
0.0
 10
-1.71482
 20
-32.86502
 30
0.0
 10
-1.69643
 20
-32.3675
 30
0.0
 10
-1.75398
 20
-32.11129
 30
0.0
 10
-2.04931
 20
-31.61263
 30
0.0
 10
-2.18906
 20
-31.37666
 30
0.0
 10
-2.38301
 20
-31.09717
 30
0.0
 10
-2.47923
 20
-30.82683
 30
0.0
 10
-2.57546
 20
-30.55651
 30
0.0
 10
-2.57394
 20
-30.29532
 30
0.0
 10
-2.59837
 20
-30.12962
 30
0.0
 10
-2.6426
 20
-29.82966
 30
0.0
 10
-2.87465
 20
-29.68431
 30
0.0
 10
-3.08023
 20
-29.25904
 30
0.0
 10
-3.18027
 20
-29.05209
 30
0.0
 10
-3.25207
 20
-28.81689
 30
0.0
 10
-3.29866
 20
-28.68783
 30
0.0
 10
-3.38732
 20
-28.44218
 30
0.0
 10
-3.5928
 20
-28.30073
 30
0.0
 10
-3.76904
 20
-27.9845
 30
0.0
 10
-3.89864
 20
-27.75194
 30
0.0
 10
-3.863
 20
-27.57027
 30
0.0
 10
-4.01417
 20
-27.56833
 30
0.0
 10
-4.53049
 20
-27.56173
 30
0.0
 10
-4.88103
 20
-29.23042
 30
0.0
 10
-4.96264
 20
-29.61263
 30
0.0
 10
-5.04371
 20
-29.99218
 30
0.0
 10
-4.9682
 20
-30.30888
 30
0.0
 10
-5.04282
 20
-30.87036
 30
0.0
 10
-5.08636
 20
-31.19798
 30
0.0
 10
-5.17646
 20
-31.50037
 30
0.0
 10
-5.25435
 20
-31.70885
 30
0.0
 10
-5.37952
 20
-32.0439
 30
0.0
 10
-5.49325
 20
-32.14839
 30
0.0
 10
-5.46053
 20
-32.41828
 30
0.0
 10
-5.43727
 20
-32.61012
 30
0.0
 10
-5.37775
 20
-32.77775
 30
0.0
 10
-5.39791
 20
-32.97269
 30
0.0
 10
-5.4025
 20
-33.017
 30
0.0
 10
-5.41014
 20
-33.017
 30
0.0
 10
-5.65374
 20
-33.02309
 30
0.0
 10
-5.65374
 20
-33.02309
 30
0.0
 10
-5.66728
 20
-33.03348
 30
0.0
 10
-5.66728
 20
-33.03348
 30
0.0
 10
-5.66728
 20
-33.03348
 30
0.0
 10
-5.66728
 20
-33.33348
 30
0.0
 10
-5.66728
 20
-33.33348
 30
0.0
 10
-5.66728
 20
-33.33348
 30
0.0
 10
-6.46728
 20
-33.33348
 30
0.0
 10
-6.46728
 20
-33.33348
 30
0.0
 10
-6.46728
 20
-33.33348
 30
0.0
 10
-6.46728
 20
-33.0432
 30
0.0
 10
-6.46728
 20
-33.0432
 30
0.0
 10
-6.52554
 20
-33.04457
 30
0.0
 10
-6.57887
 20
-33.04578
 30
0.0
 10
-6.62435
 20
-33.04676
 30
0.0
 10
-6.912
 20
-33.05298
 30
0.0
 10
-6.97245
 20
-33.09575
 30
0.0
 10
-6.58921
 20
-32.76116
 30
0.0
 10
-6.33153
 20
-32.53619
 30
0.0
 10
-6.25556
 20
-32.45253
 30
0.0
 10
-6.13486
 20
-32.12578
 30
0.0
 10
-6.06859
 20
-31.94638
 30
0.0
 10
-6.13972
 20
-31.89141
 30
0.0
 10
-6.08827
 20
-31.49274
 30
0.0
 10
-6.05773
 20
-31.256
 30
0.0
 10
-5.98747
 20
-30.91999
 30
0.0
 10
-5.95081
 20
-30.73595
 30
0.0
 10
-5.88635
 20
-30.41233
 30
0.0
 10
-5.91793
 20
-30.586
 30
0.0
 10
-5.98212
 20
-30.26935
 30
0.0
 10
-6.09497
 20
-29.71248
 30
0.0
 10
-6.11824
 20
-28.99685
 30
0.0
 10
-6.02641
 20
-28.39154
 30
0.0
 10
-5.91051
 20
-27.62743
 30
0.0
 10
-5.72544
 20
-27.6569
 30
0.0
 10
-5.95081
 20
-27.63856
 30
0.0
 10
-5.95081
 20
-27.63856
 30
0.0
 10
-6.55028
 20
-27.61108
 30
0.0
 10
-6.55028
 20
-27.61108
 30
0.0
 10
-6.73039
 20
-27.6091
 30
0.0
 10
-6.61898
 20
-27.55208
 30
0.0
 10
-6.9237
 20
-27.41712
 30
0.0
 10
-7.32562
 20
-27.23914
 30
0.0
 10
-8.04393
 20
-27.0616
 30
0.0
 10
-8.44184
 20
-27.30182
 30
0.0
 10
-8.60258
 20
-27.39885
 30
0.0
 10
-8.65869
 20
-27.57934
 30
0.0
 10
-8.70759
 20
-27.5477
 30
0.0
 10
-8.73357
 20
-27.53091
 30
0.0
 10
-8.75037
 20
-27.44689
 30
0.0
 10
-8.69384
 20
-27.3606
 30
0.0
 10
-8.52682
 20
-27.10558
 30
0.0
 10
-7.69492
 20
-26.91171
 30
0.0
 10
-7.17493
 20
-26.76113
 30
0.0
 10
-6.66865
 20
-26.61452
 30
0.0
 10
-6.00427
 20
-26.41596
 30
0.0
 10
-5.67206
 20
-26.31516
 30
0.0
 10
-5.31843
 20
-26.20785
 30
0.0
 10
-5.3252
 20
-26.23629
 30
0.0
 10
-5.31086
 20
-26.07842
 30
0.0
 10
-5.28978
 20
-25.84648
 30
0.0
 10
-5.32082
 20
-25.97137
 30
0.0
 10
-5.23221
 20
-25.76457
 30
0.0
 10
-5.18483
 20
-25.65399
 30
0.0
 10
-5.27991
 20
-25.50676
 30
0.0
 10
-5.33377
 20
-25.51255
 30
0.0
 10
-5.37237
 20
-25.51668
 30
0.0
 10
-5.36898
 20
-25.6053
 30
0.0
 10
-5.53385
 20
-25.68591
 30
0.0
 10
-5.84682
 20
-25.83891
 30
0.0
 10
-5.84475
 20
-25.67271
 30
0.0
 10
-5.92789
 20
-25.75999
 30
0.0
 10
-5.98356
 20
-25.81843
 30
0.0
 10
-6.01531
 20
-25.78024
 30
0.0
 10
-6.06458
 20
-25.70347
 30
0.0
 10
-6.32549
 20
-25.29701
 30
0.0
 10
-5.91175
 20
-24.77626
 30
0.0
 10
-5.87215
 20
-24.3251
 30
0.0
 10
-5.8504
 20
-24.0774
 30
0.0
 10
-5.89213
 20
-23.9234
 30
0.0
 10
-5.78891
 20
-23.67904
 30
0.0
 10
-5.70261
 20
-23.47477
 30
0.0
 10
-5.60957
 20
-23.36312
 30
0.0
 10
-5.56211
 20
-23.27355
 30
0.0
 10
-5.53048
 20
-23.21382
 30
0.0
 10
-5.77826
 20
-23.05878
 30
0.0
 10
-5.69957
 20
-22.99861
 30
0.0
 10
-5.63556
 20
-22.9497
 30
0.0
 10
-5.52402
 20
-23.19365
 30
0.0
 10
-5.42043
 20
-23.19047
 30
0.0
 10
-5.3367
 20
-23.18792
 30
0.0
 10
-5.37033
 20
-23.21213
 30
0.0
 10
-5.55178
 20
-22.95165
 30
0.0
 10
-5.59747
 20
-22.88607
 30
0.0
 10
-5.59226
 20
-22.89289
 30
0.0
 10
-5.51609
 20
-22.84683
 30
0.0
 10
-5.50063
 20
-22.83748
 30
0.0
 10
-5.49872
 20
-22.83441
 30
0.0
 10
-5.4613
 20
-22.88331
 30
0.0
 10
-5.24287
 20
-23.16864
 30
0.0
 10
-5.28741
 20
-23.16503
 30
0.0
 10
-5.19267
 20
-23.13302
 30
0.0
 10
-5.16357
 20
-23.12318
 30
0.0
 10
-5.16042
 20
-23.1329
 30
0.0
 10
-5.22341
 20
-23.0536
 30
0.0
 10
-5.22341
 20
-23.0536
 30
0.0
 10
-5.42846
 20
-22.77771
 30
0.0
 10
-5.42846
 20
-22.77771
 30
0.0
 10
-5.42846
 20
-22.77771
 30
0.0
 10
-5.31333
 20
-22.71549
 30
0.0
 10
-5.31333
 20
-22.71549
 30
0.0
 10
-5.29176
 20
-22.71148
 30
0.0
 10
-5.28604
 20
-22.72331
 30
0.0
 10
-5.249
 20
-22.77771
 30
0.0
 10
-5.249
 20
-22.77771
 30
0.0
 10
-5.04166
 20
-23.07078
 30
0.0
 10
-5.04166
 20
-23.07078
 30
0.0
 10
-5.02346
 20
-23.09311
 30
0.0
 10
-4.99658
 20
-23.07561
 30
0.0
 10
-4.95251
 20
-23.05608
 30
0.0
 10
-4.93743
 20
-23.0494
 30
0.0
 10
-4.93589
 20
-23.04863
 30
0.0
 10
-4.97674
 20
-22.99747
 30
0.0
 10
-5.22111
 20
-22.69148
 30
0.0
 10
-5.24745
 20
-22.7196
 30
0.0
 10
-5.11803
 20
-22.64275
 30
0.0
 10
-5.10582
 20
-22.63549
 30
0.0
 10
-5.10314
 20
-22.63549
 30
0.0
 10
-5.05139
 20
-22.69792
 30
0.0
 10
-4.7597
 20
-23.04989
 30
0.0
 10
-4.81068
 20
-23.05796
 30
0.0
 10
-4.66785
 20
-22.95967
 30
0.0
 10
-4.53778
 20
-22.87016
 30
0.0
 10
-4.47121
 20
-22.56608
 30
0.0
 10
-4.53899
 20
-22.45929
 30
0.0
  0
SPLINE
  5
72
330
1F
100
AcDbEntity
  8
layer 1
 62
   250
370
    20
100
AcDbSpline
210
0.0
220
0.0
230
1.0
 70
    11
 71
     3
 72
    35
 73
    31
 74
     0
 42
0.0000000001
 43
0.0000000001
 40
0.0
 40
0.0
 40
0.0
 40
0.0
 40
0.1
 40
0.1
 40
0.1
 40
0.2
 40
0.2
 40
0.2
 40
0.3
 40
0.3
 40
0.3
 40
0.4
 40
0.4
 40
0.4
 40
0.5
 40
0.5
 40
0.5
 40
0.6000000000000001
 40
0.6000000000000001
 40
0.6000000000000001
 40
0.7000000000000001
 40
0.7000000000000001
 40
0.7000000000000001
 40
0.8
 40
0.8
 40
0.8
 40
0.9
 40
0.9
 40
0.9
 40
1.0
 40
1.0
 40
1.0
 40
1.0
 10
-2.43447
 20
-25.62558
 30
0.0
 10
-2.43093
 20
-25.95568
 30
0.0
 10
-2.5321
 20
-26.13315
 30
0.0
 10
-2.69983
 20
-26.4259
 30
0.0
 10
-2.78282
 20
-26.57071
 30
0.0
 10
-2.79885
 20
-26.58802
 30
0.0
 10
-2.74679
 20
-26.5916
 30
0.0
 10
-2.58554
 20
-26.6027
 30
0.0
 10
-2.50219
 20
-26.42375
 30
0.0
 10
-2.47838
 20
-26.40147
 30
0.0
 10
-2.44638
 20
-26.37148
 30
0.0
 10
-2.22893
 20
-26.37192
 30
0.0
 10
-2.15689
 20
-26.36632
 30
0.0
 10
-2.0977
 20
-26.36173
 30
0.0
 10
-2.07784
 20
-26.35717
 30
0.0
 10
-2.02934
 20
-26.3186
 30
0.0
 10
-1.91944
 20
-26.23122
 30
0.0
 10
-1.73737
 20
-26.04703
 30
0.0
 10
-1.67998
 20
-25.90699
 30
0.0
 10
-1.59145
 20
-25.69093
 30
0.0
 10
-1.69323
 20
-25.76511
 30
0.0
 10
-1.46692
 20
-25.41824
 30
0.0
 10
-1.33116
 20
-25.21014
 30
0.0
 10
-1.34624
 20
-25.23397
 30
0.0
 10
-1.41156
 20
-25.25634
 30
0.0
 10
-1.41156
 20
-25.25634
 30
0.0
 10
-2.1626
 20
-25.52058
 30
0.0
 10
-2.1626
 20
-25.52058
 30
0.0
 10
-2.41929
 20
-25.58198
 30
0.0
 10
-2.43604
 20
-25.478
 30
0.0
 10
-2.43447
 20
-25.62558
 30
0.0
  0
SPLINE
  5
73
330
1F
100
AcDbEntity
  8
layer 1
 62
   250
370
    20
100
AcDbSpline
210
0.0
220
0.0
230
1.0
 70
    11
 71
     3
 72
    41
 73
    37
 74
     0
 42
0.0000000001
 43
0.0000000001
 40
0.0
 40
0.0
 40
0.0
 40
0.0
 40
0.0833333333333333
 40
0.0833333333333333
 40
0.0833333333333333
 40
0.1666666666666667
 40
0.1666666666666667
 40
0.1666666666666667
 40
0.25
 40
0.25
 40
0.25
 40
0.3333333333333333
 40
0.3333333333333333
 40
0.3333333333333333
 40
0.4166666666666666
 40
0.4166666666666666
 40
0.4166666666666666
 40
0.5
 40
0.5
 40
0.5
 40
0.5833333333333333
 40
0.5833333333333333
 40
0.5833333333333333
 40
0.6666666666666666
 40
0.6666666666666666
 40
0.6666666666666666
 40
0.75
 40
0.75
 40
0.75
 40
0.8333333333333333
 40
0.8333333333333333
 40
0.8333333333333333
 40
0.9166666666666666
 40
0.9166666666666666
 40
0.9166666666666666
 40
1.0
 40
1.0
 40
1.0
 40
1.0
 10
-6.62677
 20
-26.78699
 30
0.0
 10
-6.34499
 20
-26.69916
 30
0.0
 10
-5.88756
 20
-26.54872
 30
0.0
 10
-5.65655
 20
-26.47234
 30
0.0
 10
-5.36907
 20
-26.37732
 30
0.0
 10
-5.42027
 20
-26.37886
 30
0.0
 10
-5.43546
 20
-26.4609
 30
0.0
 10
-5.46189
 20
-26.60357
 30
0.0
 10
-5.56481
 20
-26.47423
 30
0.0
 10
-5.61913
 20
-26.69151
 30
0.0
 10
-5.64257
 20
-26.78531
 30
0.0
 10
-5.57471
 20
-26.7569
 30
0.0
 10
-5.56339
 20
-26.79767
 30
0.0
 10
-5.54554
 20
-26.86183
 30
0.0
 10
-5.66763
 20
-26.90685
 30
0.0
 10
-5.68632
 20
-26.9569
 30
0.0
 10
-5.71202
 20
-27.0257
 30
0.0
 10
-5.65673
 20
-27.13759
 30
0.0
 10
-5.68976
 20
-27.21464
 30
0.0
 10
-5.68976
 20
-27.21464
 30
0.0
 10
-5.8299
 20
-27.41815
 30
0.0
 10
-5.8299
 20
-27.41815
 30
0.0
 10
-5.88
 20
-27.47334
 30
0.0
 10
-6.12767
 20
-27.46125
 30
0.0
 10
-6.20828
 20
-27.46168
 30
0.0
 10
-6.36062
 20
-27.4625
 30
0.0
 10
-6.34898
 20
-27.42916
 30
0.0
 10
-6.54697
 20
-27.33491
 30
0.0
 10
-6.85154
 20
-27.18992
 30
0.0
 10
-7.05174
 20
-27.14656
 30
0.0
 10
-7.34233
 20
-27.06649
 30
0.0
 10
-7.41717
 20
-27.04586
 30
0.0
 10
-7.40647
 20
-27.04282
 30
0.0
 10
-7.3553
 20
-27.02218
 30
0.0
 10
-7.06228
 20
-26.90406
 30
0.0
 10
-7.0513
 20
-26.91927
 30
0.0
 10
-6.62677
 20
-26.78699
 30
0.0
  0
SPLINE
  5
74
330
1F
100
AcDbEntity
  8
layer 1
 62
   250
370
    20
100
AcDbSpline
210
0.0
220
0.0
230
1.0
 70
    11
 71
     3
 72
    59
 73
    55
 74
     0
 42
0.0000000001
 43
0.0000000001
 40
0.0
 40
0.0
 40
0.0
 40
0.0
 40
0.0555555555555556
 40
0.0555555555555556
 40
0.0555555555555556
 40
0.1111111111111111
 40
0.1111111111111111
 40
0.1111111111111111
 40
0.1666666666666667
 40
0.1666666666666667
 40
0.1666666666666667
 40
0.2222222222222222
 40
0.2222222222222222
 40
0.2222222222222222
 40
0.2777777777777778
 40
0.2777777777777778
 40
0.2777777777777778
 40
0.3333333333333333
 40
0.3333333333333333
 40
0.3333333333333333
 40
0.3888888888888888
 40
0.3888888888888888
 40
0.3888888888888888
 40
0.4444444444444444
 40
0.4444444444444444
 40
0.4444444444444444
 40
0.5
 40
0.5
 40
0.5
 40
0.5555555555555556
 40
0.5555555555555556
 40
0.5555555555555556
 40
0.611111111111111
 40
0.611111111111111
 40
0.611111111111111
 40
0.6666666666666666
 40
0.6666666666666666
 40
0.6666666666666666
 40
0.7222222222222222
 40
0.7222222222222222
 40
0.7222222222222222
 40
0.7777777777777777
 40
0.7777777777777777
 40
0.7777777777777777
 40
0.8333333333333333
 40
0.8333333333333333
 40
0.8333333333333333
 40
0.8888888888888888
 40
0.8888888888888888
 40
0.8888888888888888
 40
0.9444444444444444
 40
0.9444444444444444
 40
0.9444444444444444
 40
1.0
 40
1.0
 40
1.0
 40
1.0
 10
-4.6229
 20
-25.23829
 30
0.0
 10
-4.52668
 20
-25.16033
 30
0.0
 10
-4.6154
 20
-24.98804
 30
0.0
 10
-4.51599
 20
-25.07717
 30
0.0
 10
-4.26006
 20
-25.30664
 30
0.0
 10
-4.29586
 20
-25.31293
 30
0.0
 10
-4.32355
 20
-25.53917
 30
0.0
 10
-4.33035
 20
-25.59471
 30
0.0
 10
-4.32959
 20
-25.59101
 30
0.0
 10
-4.19983
 20
-25.57658
 30
0.0
 10
-4.17235
 20
-25.57353
 30
0.0
 10
-4.16778
 20
-25.57353
 30
0.0
 10
-4.11432
 20
-25.65524
 30
0.0
 10
-4.06086
 20
-25.73697
 30
0.0
 10
-3.95853
 20
-25.90037
 30
0.0
 10
-3.90736
 20
-25.98437
 30
0.0
 10
-3.83258
 20
-26.10714
 30
0.0
 10
-3.86305
 20
-26.07773
 30
0.0
 10
-3.88523
 20
-26.26233
 30
0.0
 10
-3.88982
 20
-26.30052
 30
0.0
 10
-3.88675
 20
-26.30358
 30
0.0
 10
-3.79817
 20
-26.47158
 30
0.0
 10
-3.63385
 20
-26.78325
 30
0.0
 10
-1.86919
 20
-30.10976
 30
0.0
 10
-1.86919
 20
-30.16079
 30
0.0
 10
-1.86919
 20
-30.25071
 30
0.0
 10
-1.92141
 20
-30.18554
 30
0.0
 10
-2.03109
 20
-30.005
 30
0.0
 10
-2.38812
 20
-29.41736
 30
0.0
 10
-3.44742
 20
-27.44949
 30
0.0
 10
-3.79588
 20
-26.80835
 30
0.0
 10
-4.09068
 20
-26.26597
 30
0.0
 10
-4.00992
 20
-26.35225
 30
0.0
 10
-4.2151
 20
-26.3112
 30
0.0
 10
-4.28844
 20
-26.29654
 30
0.0
 10
-4.28515
 20
-26.30128
 30
0.0
 10
-4.34149
 20
-26.20772
 30
0.0
 10
-4.38541
 20
-26.13479
 30
0.0
 10
-4.4633
 20
-25.99735
 30
0.0
 10
-4.50186
 20
-25.92631
 30
0.0
 10
-4.56401
 20
-25.81185
 30
0.0
 10
-4.52522
 20
-25.83031
 30
0.0
 10
-4.50948
 20
-25.65903
 30
0.0
 10
-4.50472
 20
-25.60716
 30
0.0
 10
-4.51996
 20
-25.62306
 30
0.0
 10
-4.65497
 20
-25.60748
 30
0.0
 10
-4.68475
 20
-25.60406
 30
0.0
 10
-4.69085
 20
-25.60253
 30
0.0
 10
-4.72903
 20
-25.54754
 30
0.0
 10
-4.97798
 20
-25.18908
 30
0.0
 10
-4.92842
 20
-25.24969
 30
0.0
 10
-4.80541
 20
-25.26232
 30
0.0
 10
-4.74967
 20
-25.26805
 30
0.0
 10
-4.66719
 20
-25.27419
 30
0.0
 10
-4.6229
 20
-25.23829
 30
0.0
  0
SPLINE
  5
75
330
1F
100
AcDbEntity
  8
layer 1
 62
   250
370
    20
100
AcDbSpline
210
0.0
220
0.0
230
1.0
 70
    11
 71
     3
 72
    29
 73
    25
 74
     0
 42
0.0000000001
 43
0.0000000001
 40
0.0
 40
0.0
 40
0.0
 40
0.0
 40
0.125
 40
0.125
 40
0.125
 40
0.25
 40
0.25
 40
0.25
 40
0.375
 40
0.375
 40
0.375
 40
0.5
 40
0.5
 40
0.5
 40
0.625
 40
0.625
 40
0.625
 40
0.75
 40
0.75
 40
0.75
 40
0.875
 40
0.875
 40
0.875
 40
1.0
 40
1.0
 40
1.0
 40
1.0
 10
-3.24257
 20
-25.72692
 30
0.0
 10
-3.15036
 20
-25.66484
 30
0.0
 10
-2.88054
 20
-25.46438
 30
0.0
 10
-2.77255
 20
-25.50584
 30
0.0
 10
-2.68369
 20
-25.53996
 30
0.0
 10
-2.61818
 20
-25.69524
 30
0.0
 10
-2.60684
 20
-25.78725
 30
0.0
 10
-2.59359
 20
-25.8946
 30
0.0
 10
-2.65193
 20
-26.03305
 30
0.0
 10
-2.69504
 20
-26.12364
 30
0.0
 10
-2.74822
 20
-26.23542
 30
0.0
 10
-2.70694
 20
-26.02357
 30
0.0
 10
-2.77027
 20
-25.89072
 30
0.0
 10
-2.8054
 20
-25.81704
 30
0.0
 10
-2.87259
 20
-25.77657
 30
0.0
 10
-2.91039
 20
-25.74792
 30
0.0
 10
-3.01627
 20
-25.66773
 30
0.0
 10
-2.95509
 20
-25.73615
 30
0.0
 10
-3.11925
 20
-25.79869
 30
0.0
 10
-3.18019
 20
-25.82192
 30
0.0
 10
-3.38309
 20
-25.84654
 30
0.0
 10
-3.35408
 20
-25.8094
 30
0.0
 10
-3.34454
 20
-25.79719
 30
0.0
 10
-3.31856
 20
-25.7781
 30
0.0
 10
-3.24257
 20
-25.72692
 30
0.0
  0
SPLINE
  5
76
330
1F
100
AcDbEntity
  8
layer 1
 62
   250
370
    20
100
AcDbSpline
210
0.0
220
0.0
230
1.0
 70
    11
 71
     3
 72
    26
 73
    22
 74
     0
 42
0.0000000001
 43
0.0000000001
 40
0.0
 40
0.0
 40
0.0
 40
0.0
 40
0.1428571428571428
 40
0.1428571428571428
 40
0.1428571428571428
 40
0.2857142857142857
 40
0.2857142857142857
 40
0.2857142857142857
 40
0.4285714285714285
 40
0.4285714285714285
 40
0.4285714285714285
 40
0.5714285714285714
 40
0.5714285714285714
 40
0.5714285714285714
 40
0.7142857142857142
 40
0.7142857142857142
 40
0.7142857142857142
 40
0.8571428571428571
 40
0.8571428571428571
 40
0.8571428571428571
 40
1.0
 40
1.0
 40
1.0
 40
1.0
 10
-3.40181
 20
-26.17862
 30
0.0
 10
-3.31795
 20
-26.13339
 30
0.0
 10
-3.22341
 20
-26.07776
 30
0.0
 10
-3.15514
 20
-26.01406
 30
0.0
 10
-3.11164
 20
-25.97347
 30
0.0
 10
-3.06952
 20
-25.95982
 30
0.0
 10
-2.98179
 20
-26.01292
 30
0.0
 10
-2.80987
 20
-26.11699
 30
0.0
 10
-2.84712
 20
-26.46213
 30
0.0
 10
-2.90274
 20
-26.49403
 30
0.0
 10
-2.94204
 20
-26.51656
 30
0.0
 10
-3.06057
 20
-26.50556
 30
0.0
 10
-3.06924
 20
-26.37183
 30
0.0
 10
-3.07351
 20
-26.30578
 30
0.0
 10
-3.03573
 20
-26.12973
 30
0.0
 10
-3.1792
 20
-26.22024
 30
0.0
 10
-3.26948
 20
-26.27719
 30
0.0
 10
-3.29603
 20
-26.35023
 30
0.0
 10
-3.43731
 20
-26.26301
 30
0.0
 10
-3.4973
 20
-26.22599
 30
0.0
 10
-3.48252
 20
-26.22216
 30
0.0
 10
-3.40181
 20
-26.17862
 30
0.0
  0
SPLINE
  5
77
330
1F
100
AcDbEntity
  8
layer 1
 62
   250
370
    20
100
AcDbSpline
210
0.0
220
0.0
230
1.0
 70
    11
 71
     3
 72
   332
 73
   328
 74
     0
 42
0.0000000001
 43
0.0000000001
 40
0.0
 40
0.0
 40
0.0
 40
0.0
 40
0.0091743119266055
 40
0.0091743119266055
 40
0.0091743119266055
 40
0.018348623853211
 40
0.018348623853211
 40
0.018348623853211
 40
0.0275229357798165
 40
0.0275229357798165
 40
0.0275229357798165
 40
0.036697247706422
 40
0.036697247706422
 40
0.036697247706422
 40
0.0458715596330275
 40
0.0458715596330275
 40
0.0458715596330275
 40
0.055045871559633
 40
0.055045871559633
 40
0.055045871559633
 40
0.0642201834862385
 40
0.0642201834862385
 40
0.0642201834862385
 40
0.073394495412844
 40
0.073394495412844
 40
0.073394495412844
 40
0.0825688073394495
 40
0.0825688073394495
 40
0.0825688073394495
 40
0.0917431192660551
 40
0.0917431192660551
 40
0.0917431192660551
 40
0.1009174311926606
 40
0.1009174311926606
 40
0.1009174311926606
 40
0.1100917431192661
 40
0.1100917431192661
 40
0.1100917431192661
 40
0.1192660550458716
 40
0.1192660550458716
 40
0.1192660550458716
 40
0.1284403669724771
 40
0.1284403669724771
 40
0.1284403669724771
 40
0.1376146788990826
 40
0.1376146788990826
 40
0.1376146788990826
 40
0.1467889908256881
 40
0.1467889908256881
 40
0.1467889908256881
 40
0.1559633027522936
 40
0.1559633027522936
 40
0.1559633027522936
 40
0.1651376146788991
 40
0.1651376146788991
 40
0.1651376146788991
 40
0.1743119266055046
 40
0.1743119266055046
 40
0.1743119266055046
 40
0.1834862385321101
 40
0.1834862385321101
 40
0.1834862385321101
 40
0.1926605504587156
 40
0.1926605504587156
 40
0.1926605504587156
 40
0.2018348623853211
 40
0.2018348623853211
 40
0.2018348623853211
 40
0.2110091743119266
 40
0.2110091743119266
 40
0.2110091743119266
 40
0.2201834862385321
 40
0.2201834862385321
 40
0.2201834862385321
 40
0.2293577981651376
 40
0.2293577981651376
 40
0.2293577981651376
 40
0.2385321100917431
 40
0.2385321100917431
 40
0.2385321100917431
 40
0.2477064220183486
 40
0.2477064220183486
 40
0.2477064220183486
 40
0.2568807339449541
 40
0.2568807339449541
 40
0.2568807339449541
 40
0.2660550458715596
 40
0.2660550458715596
 40
0.2660550458715596
 40
0.2752293577981652
 40
0.2752293577981652
 40
0.2752293577981652
 40
0.2844036697247707
 40
0.2844036697247707
 40
0.2844036697247707
 40
0.2935779816513762
 40
0.2935779816513762
 40
0.2935779816513762
 40
0.3027522935779817
 40
0.3027522935779817
 40
0.3027522935779817
 40
0.3119266055045872
 40
0.3119266055045872
 40
0.3119266055045872
 40
0.3211009174311927
 40
0.3211009174311927
 40
0.3211009174311927
 40
0.3302752293577982
 40
0.3302752293577982
 40
0.3302752293577982
 40
0.3394495412844037
 40
0.3394495412844037
 40
0.3394495412844037
 40
0.3486238532110092
 40
0.3486238532110092
 40
0.3486238532110092
 40
0.3577981651376147
 40
0.3577981651376147
 40
0.3577981651376147
 40
0.3669724770642202
 40
0.3669724770642202
 40
0.3669724770642202
 40
0.3761467889908257
 40
0.3761467889908257
 40
0.3761467889908257
 40
0.3853211009174312
 40
0.3853211009174312
 40
0.3853211009174312
 40
0.3944954128440367
 40
0.3944954128440367
 40
0.3944954128440367
 40
0.4036697247706422
 40
0.4036697247706422
 40
0.4036697247706422
 40
0.4128440366972477
 40
0.4128440366972477
 40
0.4128440366972477
 40
0.4220183486238532
 40
0.4220183486238532
 40
0.4220183486238532
 40
0.4311926605504587
 40
0.4311926605504587
 40
0.4311926605504587
 40
0.4403669724770642
 40
0.4403669724770642
 40
0.4403669724770642
 40
0.4495412844036697
 40
0.4495412844036697
 40
0.4495412844036697
 40
0.4587155963302753
 40
0.4587155963302753
 40
0.4587155963302753
 40
0.4678899082568808
 40
0.4678899082568808
 40
0.4678899082568808
 40
0.4770642201834863
 40
0.4770642201834863
 40
0.4770642201834863
 40
0.4862385321100918
 40
0.4862385321100918
 40
0.4862385321100918
 40
0.4954128440366973
 40
0.4954128440366973
 40
0.4954128440366973
 40
0.5045871559633028
 40
0.5045871559633028
 40
0.5045871559633028
 40
0.5137614678899083
 40
0.5137614678899083
 40
0.5137614678899083
 40
0.5229357798165137
 40
0.5229357798165137
 40
0.5229357798165137
 40
0.5321100917431193
 40
0.5321100917431193
 40
0.5321100917431193
 40
0.5412844036697249
 40
0.5412844036697249
 40
0.5412844036697249
 40
0.5504587155963303
 40
0.5504587155963303
 40
0.5504587155963303
 40
0.5596330275229358
 40
0.5596330275229358
 40
0.5596330275229358
 40
0.5688073394495413
 40
0.5688073394495413
 40
0.5688073394495413
 40
0.5779816513761469
 40
0.5779816513761469
 40
0.5779816513761469
 40
0.5871559633027523
 40
0.5871559633027523
 40
0.5871559633027523
 40
0.5963302752293578
 40
0.5963302752293578
 40
0.5963302752293578
 40
0.6055045871559633
 40
0.6055045871559633
 40
0.6055045871559633
 40
0.6146788990825689
 40
0.6146788990825689
 40
0.6146788990825689
 40
0.6238532110091743
 40
0.6238532110091743
 40
0.6238532110091743
 40
0.6330275229357798
 40
0.6330275229357798
 40
0.6330275229357798
 40
0.6422018348623854
 40
0.6422018348623854
 40
0.6422018348623854
 40
0.6513761467889909
 40
0.6513761467889909
 40
0.6513761467889909
 40
0.6605504587155964
 40
0.6605504587155964
 40
0.6605504587155964
 40
0.6697247706422018
 40
0.6697247706422018
 40
0.6697247706422018
 40
0.6788990825688074
 40
0.6788990825688074
 40
0.6788990825688074
 40
0.6880733944954129
 40
0.6880733944954129
 40
0.6880733944954129
 40
0.6972477064220184
 40
0.6972477064220184
 40
0.6972477064220184
 40
0.7064220183486238
 40
0.7064220183486238
 40
0.7064220183486238
 40
0.7155963302752294
 40
0.7155963302752294
 40
0.7155963302752294
 40
0.724770642201835
 40
0.724770642201835
 40
0.724770642201835
 40
0.7339449541284404
 40
0.7339449541284404
 40
0.7339449541284404
 40
0.7431192660550459
 40
0.7431192660550459
 40
0.7431192660550459
 40
0.7522935779816514
 40
0.7522935779816514
 40
0.7522935779816514
 40
0.761467889908257
 40
0.761467889908257
 40
0.761467889908257
 40
0.7706422018348624
 40
0.7706422018348624
 40
0.7706422018348624
 40
0.7798165137614679
 40
0.7798165137614679
 40
0.7798165137614679
 40
0.7889908256880734
 40
0.7889908256880734
 40
0.7889908256880734
 40
0.798165137614679
 40
0.798165137614679
 40
0.798165137614679
 40
0.8073394495412844
 40
0.8073394495412844
 40
0.8073394495412844
 40
0.8165137614678899
 40
0.8165137614678899
 40
0.8165137614678899
 40
0.8256880733944955
 40
0.8256880733944955
 40
0.8256880733944955
 40
0.834862385321101
 40
0.834862385321101
 40
0.834862385321101
 40
0.8440366972477065
 40
0.8440366972477065
 40
0.8440366972477065
 40
0.8532110091743119
 40
0.8532110091743119
 40
0.8532110091743119
 40
0.8623853211009175
 40
0.8623853211009175
 40
0.8623853211009175
 40
0.871559633027523
 40
0.871559633027523
 40
0.871559633027523
 40
0.8807339449541285
 40
0.8807339449541285
 40
0.8807339449541285
 40
0.8899082568807339
 40
0.8899082568807339
 40
0.8899082568807339
 40
0.8990825688073395
 40
0.8990825688073395
 40
0.8990825688073395
 40
0.9082568807339451
 40
0.9082568807339451
 40
0.9082568807339451
 40
0.9174311926605505
 40
0.9174311926605505
 40
0.9174311926605505
 40
0.926605504587156
 40
0.926605504587156
 40
0.926605504587156
 40
0.9357798165137615
 40
0.9357798165137615
 40
0.9357798165137615
 40
0.9449541284403671
 40
0.9449541284403671
 40
0.9449541284403671
 40
0.9541284403669725
 40
0.9541284403669725
 40
0.9541284403669725
 40
0.963302752293578
 40
0.963302752293578
 40
0.963302752293578
 40
0.9724770642201835
 40
0.9724770642201835
 40
0.9724770642201835
 40
0.9816513761467891
 40
0.9816513761467891
 40
0.9816513761467891
 40
0.9908256880733946
 40
0.9908256880733946
 40
0.9908256880733946
 40
1.0
 40
1.0
 40
1.0
 40
1.0
 10
8.36903
 20
-27.25126
 30
0.0
 10
8.40668
 20
-27.02605
 30
0.0
 10
8.44209
 20
-26.81052
 30
0.0
 10
8.60383
 20
-26.63078
 30
0.0
 10
8.73895
 20
-26.48065
 30
0.0
 10
8.7311
 20
-26.59278
 30
0.0
 10
8.7917
 20
-26.31004
 30
0.0
 10
8.92968
 20
-25.66615
 30
0.0
 10
9.04734
 20
-25.74876
 30
0.0
 10
9.11395
 20
-25.48224
 30
0.0
 10
9.15253
 20
-25.32789
 30
0.0
 10
9.30287
 20
-24.73231
 30
0.0
 10
9.31252
 20
-24.57963
 30
0.0
 10
9.32168
 20
-24.43452
 30
0.0
 10
9.29725
 20
-24.29401
 30
0.0
 10
9.31862
 20
-24.11531
 30
0.0
 10
9.34
 20
-23.93661
 30
0.0
 10
9.40721
 20
-23.71975
 30
0.0
 10
9.50954
 20
-23.57466
 30
0.0
 10
9.77887
 20
-23.19276
 30
0.0
 10
10.30499
 20
-23.29668
 30
0.0
 10
10.32013
 20
-23.16876
 30
0.0
 10
10.32013
 20
-23.16876
 30
0.0
 10
10.3545
 20
-22.95763
 30
0.0
 10
10.3545
 20
-22.95763
 30
0.0
 10
10.36357
 20
-22.92844
 30
0.0
 10
10.40538
 20
-22.85037
 30
0.0
 10
10.35029
 20
-22.77893
 30
0.0
 10
10.30698
 20
-22.72278
 30
0.0
 10
10.27479
 20
-22.72061
 30
0.0
 10
10.22505
 20
-22.63497
 30
0.0
 10
10.19595
 20
-22.58483
 30
0.0
 10
10.04864
 20
-22.68345
 30
0.0
 10
10.02994
 20
-22.7163
 30
0.0
 10
9.99899
 20
-22.77066
 30
0.0
 10
10.10568
 20
-22.82584
 30
0.0
 10
10.09448
 20
-22.86751
 30
0.0
 10
10.07847
 20
-22.92696
 30
0.0
 10
9.9206
 20
-22.87711
 30
0.0
 10
9.85393
 20
-22.83313
 30
0.0
 10
9.76246
 20
-22.77278
 30
0.0
 10
9.824
 20
-22.76189
 30
0.0
 10
9.70806
 20
-22.78426
 30
0.0
 10
9.33103
 20
-22.85701
 30
0.0
 10
9.45587
 20
-22.71293
 30
0.0
 10
9.38504
 20
-22.64834
 30
0.0
 10
9.34753
 20
-22.61414
 30
0.0
 10
9.20404
 20
-22.66647
 30
0.0
 10
9.21247
 20
-22.51699
 30
0.0
 10
9.22126
 20
-22.36134
 30
0.0
 10
9.34441
 20
-22.30003
 30
0.0
 10
9.41292
 20
-22.24329
 30
0.0
 10
9.49656
 20
-22.17398
 30
0.0
 10
9.49889
 20
-22.12586
 30
0.0
 10
9.61263
 20
-22.12415
 30
0.0
 10
9.72385
 20
-22.12247
 30
0.0
 10
9.68002
 20
-22.01162
 30
0.0
 10
9.88906
 20
-21.97677
 30
0.0
 10
9.9463
 20
-21.96722
 30
0.0
 10
9.89713
 20
-21.89318
 30
0.0
 10
9.96581
 20
-21.72972
 30
0.0
 10
10.01105
 20
-21.62204
 30
0.0
 10
10.19866
 20
-21.38299
 30
0.0
 10
10.3106
 20
-21.30551
 30
0.0
 10
10.62305
 20
-21.08929
 30
0.0
 10
11.08401
 20
-21.07911
 30
0.0
 10
11.34994
 20
-21.37156
 30
0.0
 10
11.46519
 20
-21.49831
 30
0.0
 10
11.45143
 20
-21.44153
 30
0.0
 10
11.58058
 20
-21.53192
 30
0.0
 10
11.86721
 20
-21.73258
 30
0.0
 10
11.63159
 20
-21.91042
 30
0.0
 10
11.83104
 20
-21.88322
 30
0.0
 10
11.94143
 20
-21.86818
 30
0.0
 10
11.95591
 20
-21.81075
 30
0.0
 10
11.95705
 20
-21.82669
 30
0.0
 10
11.96454
 20
-21.93167
 30
0.0
 10
11.8763
 20
-21.92714
 30
0.0
 10
11.88872
 20
-22.23182
 30
0.0
 10
11.89576
 20
-22.40493
 30
0.0
 10
11.89228
 20
-22.65675
 30
0.0
 10
11.73024
 20
-22.76715
 30
0.0
 10
11.61101
 20
-22.84839
 30
0.0
 10
11.52988
 20
-22.75428
 30
0.0
 10
11.51681
 20
-22.76525
 30
0.0
 10
11.4595
 20
-22.81332
 30
0.0
 10
11.4621
 20
-22.99216
 30
0.0
 10
11.3152
 20
-22.86948
 30
0.0
 10
11.28273
 20
-22.84236
 30
0.0
 10
11.25372
 20
-22.80724
 30
0.0
 10
11.22203
 20
-22.80036
 30
0.0
 10
11.1644
 20
-22.78786
 30
0.0
 10
11.07512
 20
-22.87357
 30
0.0
 10
11.20713
 20
-22.93134
 30
0.0
 10
11.31196
 20
-22.97721
 30
0.0
 10
11.23973
 20
-23.18786
 30
0.0
 10
11.30946
 20
-23.20587
 30
0.0
 10
11.33314
 20
-23.21198
 30
0.0
 10
11.37742
 20
-23.21655
 30
0.0
 10
11.50267
 20
-23.25055
 30
0.0
 10
11.62792
 20
-23.28453
 30
0.0
 10
11.8341
 20
-23.34791
 30
0.0
 10
11.96814
 20
-23.3964
 30
0.0
 10
12.10216
 20
-23.44488
 30
0.0
 10
12.16402
 20
-23.47849
 30
0.0
 10
12.22013
 20
-23.57128
 30
0.0
 10
12.49091
 20
-24.01893
 30
0.0
 10
12.31689
 20
-24.98817
 30
0.0
 10
12.60769
 20
-25.78438
 30
0.0
 10
12.75904
 20
-26.19873
 30
0.0
 10
12.73057
 20
-26.03335
 30
0.0
 10
12.7589
 20
-26.4518
 30
0.0
 10
12.77165
 20
-26.64023
 30
0.0
 10
12.894
 20
-26.69547
 30
0.0
 10
12.98991
 20
-27.00394
 30
0.0
 10
13.05187
 20
-27.20324
 30
0.0
 10
13.13535
 20
-27.88795
 30
0.0
 10
13.34309
 20
-27.94248
 30
0.0
 10
13.39048
 20
-27.95492
 30
0.0
 10
13.45476
 20
-27.91668
 30
0.0
 10
13.49393
 20
-27.9402
 30
0.0
 10
13.53018
 20
-27.96195
 30
0.0
 10
13.45901
 20
-28.83739
 30
0.0
 10
13.45154
 20
-28.92683
 30
0.0
 10
13.43316
 20
-29.14684
 30
0.0
 10
13.46292
 20
-29.13834
 30
0.0
 10
13.14493
 20
-29.12769
 30
0.0
 10
13.04122
 20
-29.12421
 30
0.0
 10
13.08066
 20
-29.14774
 30
0.0
 10
13.08498
 20
-28.82831
 30
0.0
 10
13.08649
 20
-28.71676
 30
0.0
 10
13.06425
 20
-28.79032
 30
0.0
 10
12.98457
 20
-28.75349
 30
0.0
 10
12.82541
 20
-28.67991
 30
0.0
 10
12.90248
 20
-28.49027
 30
0.0
 10
12.89675
 20
-28.45224
 30
0.0
 10
12.8934
 20
-28.43007
 30
0.0
 10
12.82708
 20
-28.44512
 30
0.0
 10
12.79289
 20
-28.40642
 30
0.0
 10
12.77264
 20
-28.3835
 30
0.0
 10
12.76958
 20
-28.34301
 30
0.0
 10
12.7505
 20
-28.32545
 30
0.0
 10
12.73139
 20
-28.3079
 30
0.0
 10
12.69628
 20
-28.31323
 30
0.0
 10
12.67298
 20
-28.30445
 30
0.0
 10
12.67298
 20
-28.30445
 30
0.0
 10
12.58822
 20
-28.22732
 30
0.0
 10
12.58822
 20
-28.22732
 30
0.0
 10
12.56917
 20
-28.18834
 30
0.0
 10
12.57664
 20
-27.88611
 30
0.0
 10
12.58936
 20
-27.80578
 30
0.0
 10
12.61906
 20
-27.6179
 30
0.0
 10
12.69535
 20
-27.57968
 30
0.0
 10
12.6623
 20
-27.55875
 30
0.0
 10
12.57814
 20
-27.50542
 30
0.0
 10
12.49959
 20
-27.44373
 30
0.0
 10
12.43397
 20
-27.34911
 30
0.0
 10
12.40457
 20
-27.30672
 30
0.0
 10
12.40226
 20
-27.28229
 30
0.0
 10
12.39921
 20
-27.19103
 30
0.0
 10
12.39921
 20
-27.19103
 30
0.0
 10
12.39272
 20
-26.6958
 30
0.0
 10
12.39272
 20
-26.6958
 30
0.0
 10
12.38583
 20
-26.65128
 30
0.0
 10
12.25792
 20
-26.5084
 30
0.0
 10
12.20983
 20
-26.33878
 30
0.0
 10
12.14884
 20
-26.12363
 30
0.0
 10
12.24266
 20
-26.12873
 30
0.0
 10
12.14644
 20
-25.96994
 30
0.0
 10
11.77733
 20
-25.36099
 30
0.0
 10
11.92898
 20
-25.05395
 30
0.0
 10
11.81235
 20
-24.98214
 30
0.0
 10
11.7698
 20
-24.95597
 30
0.0
 10
11.77872
 20
-24.94718
 30
0.0
 10
11.71766
 20
-25.06425
 30
0.0
 10
11.64584
 20
-25.20196
 30
0.0
 10
11.56739
 20
-25.31542
 30
0.0
 10
11.55079
 20
-25.45601
 30
0.0
 10
11.50209
 20
-25.868
 30
0.0
 10
11.56519
 20
-25.76342
 30
0.0
 10
11.7692
 20
-25.9627
 30
0.0
 10
11.8426
 20
-26.03441
 30
0.0
 10
11.7425
 20
-25.99804
 30
0.0
 10
11.71116
 20
-26.12267
 30
0.0
 10
11.69513
 20
-26.18643
 30
0.0
 10
11.70046
 20
-26.2903
 30
0.0
 10
11.72222
 20
-26.34871
 30
0.0
 10
11.75864
 20
-26.44643
 30
0.0
 10
11.88606
 20
-26.44093
 30
0.0
 10
11.87839
 20
-26.48884
 30
0.0
 10
11.87097
 20
-26.53528
 30
0.0
 10
11.77094
 20
-26.5198
 30
0.0
 10
11.78789
 20
-26.73398
 30
0.0
 10
11.81124
 20
-27.02884
 30
0.0
 10
11.91648
 20
-27.33042
 30
0.0
 10
11.87154
 20
-27.71906
 30
0.0
 10
11.84558
 20
-27.94356
 30
0.0
 10
11.76768
 20
-28.19404
 30
0.0
 10
11.73333
 20
-28.31927
 30
0.0
 10
11.68217
 20
-28.50571
 30
0.0
 10
11.71757
 20
-28.41771
 30
0.0
 10
12.00136
 20
-28.58577
 30
0.0
 10
12.0594
 20
-28.62015
 30
0.0
 10
12.06246
 20
-28.63542
 30
0.0
 10
12.0365
 20
-28.73164
 30
0.0
 10
12.01053
 20
-28.82786
 30
0.0
 10
11.95554
 20
-29.00502
 30
0.0
 10
11.925
 20
-29.10048
 30
0.0
 10
11.87679
 20
-29.25118
 30
0.0
 10
11.8714
 20
-29.21961
 30
0.0
 10
11.67454
 20
-29.3082
 30
0.0
 10
11.5317
 20
-29.37248
 30
0.0
 10
11.58512
 20
-29.32867
 30
0.0
 10
11.49508
 20
-29.34868
 30
0.0
 10
11.47445
 20
-29.35325
 30
0.0
 10
11.47902
 20
-29.36396
 30
0.0
 10
11.48209
 20
-29.58693
 30
0.0
 10
11.49563
 20
-30.57474
 30
0.0
 10
11.38974
 20
-31.07806
 30
0.0
 10
11.18732
 20
-32.03598
 30
0.0
 10
11.08401
 20
-32.52486
 30
0.0
 10
11.10142
 20
-32.53926
 30
0.0
 10
11.21786
 20
-32.91263
 30
0.0
 10
11.21786
 20
-32.91263
 30
0.0
 10
11.25048
 20
-33.09857
 30
0.0
 10
11.25048
 20
-33.09857
 30
0.0
 10
11.25048
 20
-33.09857
 30
0.0
 10
10.94909
 20
-33.10489
 30
0.0
 10
10.94909
 20
-33.10489
 30
0.0
 10
10.94909
 20
-33.10489
 30
0.0
 10
10.94909
 20
-33.40489
 30
0.0
 10
10.94909
 20
-33.40489
 30
0.0
 10
10.94909
 20
-33.40489
 30
0.0
 10
10.14909
 20
-33.40489
 30
0.0
 10
10.14909
 20
-33.40489
 30
0.0
 10
10.14909
 20
-33.40489
 30
0.0
 10
10.14909
 20
-33.10489
 30
0.0
 10
10.14909
 20
-33.10489
 30
0.0
 10
10.14909
 20
-33.10489
 30
0.0
 10
9.96011
 20
-33.1005
 30
0.0
 10
9.96011
 20
-33.1005
 30
0.0
 10
9.51265
 20
-33.09011
 30
0.0
 10
9.79494
 20
-33.13333
 30
0.0
 10
9.88529
 20
-32.72785
 30
0.0
 10
9.97311
 20
-32.33376
 30
0.0
 10
9.86782
 20
-32.03688
 30
0.0
 10
9.81655
 20
-31.60069
 30
0.0
 10
9.72975
 20
-30.86188
 30
0.0
 10
9.74273
 20
-30.17949
 30
0.0
 10
9.77608
 20
-29.49071
 30
0.0
 10
9.78682
 20
-29.26879
 30
0.0
 10
9.79283
 20
-29.27819
 30
0.0
 10
9.65695
 20
-29.12721
 30
0.0
 10
9.59025
 20
-29.05308
 30
0.0
 10
9.48188
 20
-29.13769
 30
0.0
 10
9.42863
 20
-29.07987
 30
0.0
 10
9.37664
 20
-29.02341
 30
0.0
 10
9.5189
 20
-28.84907
 30
0.0
 10
9.38968
 20
-28.68507
 30
0.0
 10
9.27809
 20
-28.54345
 30
0.0
 10
9.29872
 20
-28.52973
 30
0.0
 10
9.49965
 20
-28.4384
 30
0.0
 10
9.62982
 20
-28.37922
 30
0.0
 10
9.6226
 20
-28.38231
 30
0.0
 10
9.61342
 20
-28.12528
 30
0.0
 10
9.60654
 20
-27.93285
 30
0.0
 10
9.58975
 20
-27.58159
 30
0.0
 10
9.61494
 20
-27.30972
 30
0.0
 10
9.65085
 20
-26.92248
 30
0.0
 10
9.78582
 20
-26.67704
 30
0.0
 10
9.76462
 20
-26.46893
 30
0.0
 10
9.75709
 20
-26.395
 30
0.0
 10
9.72717
 20
-26.45161
 30
0.0
 10
9.69742
 20
-26.41395
 30
0.0
 10
9.62115
 20
-26.31732
 30
0.0
 10
10.10035
 20
-25.95727
 30
0.0
 10
10.05407
 20
-25.37843
 30
0.0
 10
10.04026
 20
-25.20577
 30
0.0
 10
9.95212
 20
-25.21503
 30
0.0
 10
9.89599
 20
-24.9569
 30
0.0
 10
9.88549
 20
-24.90867
 30
0.0
 10
9.66546
 20
-25.7524
 30
0.0
 10
9.52789
 20
-25.88627
 30
0.0
 10
9.47481
 20
-25.93793
 30
0.0
 10
9.43857
 20
-25.92308
 30
0.0
 10
9.4332
 20
-26.06649
 30
0.0
 10
9.42404
 20
-26.31138
 30
0.0
 10
9.3896
 20
-26.3675
 30
0.0
 10
9.23542
 20
-26.59111
 30
0.0
 10
9.10732
 20
-26.77689
 30
0.0
 10
9.21689
 20
-26.79434
 30
0.0
 10
9.11094
 20
-27.14554
 30
0.0
 10
9.08791
 20
-27.22191
 30
0.0
 10
9.07591
 20
-27.32478
 30
0.0
 10
9.04525
 20
-27.35248
 30
0.0
 10
9.00659
 20
-27.38739
 30
0.0
 10
8.88817
 20
-27.37406
 30
0.0
 10
8.8513
 20
-27.67778
 30
0.0
 10
8.83333
 20
-27.82589
 30
0.0
 10
8.84132
 20
-28.13465
 30
0.0
 10
8.74897
 20
-28.18638
 30
0.0
 10
8.65252
 20
-28.24041
 30
0.0
 10
8.69594
 20
-28.2467
 30
0.0
 10
8.61686
 20
-28.24367
 30
0.0
 10
8.46305
 20
-28.23776
 30
0.0
 10
8.50343
 20
-28.42484
 30
0.0
 10
8.48017
 20
-28.48346
 30
0.0
 10
8.42952
 20
-28.61107
 30
0.0
 10
8.2897
 20
-28.60189
 30
0.0
 10
8.27321
 20
-28.60563
 30
0.0
 10
8.23664
 20
-28.61395
 30
0.0
 10
8.28414
 20
-28.94201
 30
0.0
 10
8.25488
 20
-28.9508
 30
0.0
 10
8.25488
 20
-28.9508
 30
0.0
 10
7.93797
 20
-28.97601
 30
0.0
 10
7.93797
 20
-28.97601
 30
0.0
 10
7.93797
 20
-28.97601
 30
0.0
 10
7.94179
 20
-27.94356
 30
0.0
 10
7.94179
 20
-27.94356
 30
0.0
 10
7.94796
 20
-27.65771
 30
0.0
 10
7.93011
 20
-27.70223
 30
0.0
 10
8.19991
 20
-27.70223
 30
0.0
 10
8.23793
 20
-27.70223
 30
0.0
 10
8.21666
 20
-27.68911
 30
0.0
 10
8.25259
 20
-27.59533
 30
0.0
 10
8.31065
 20
-27.44383
 30
0.0
 10
8.33609
 20
-27.44809
 30
0.0
 10
8.36903
 20
-27.25126
 30
0.0
  0
SPLINE
  5
78
330
1F
100
AcDbEntity
  8
layer 1
 62
   250
370
    20
100
AcDbSpline
210
0.0
220
0.0
230
1.0
 70
    11
 71
     3
 72
   173
 73
   169
 74
     0
 42
0.0000000001
 43
0.0000000001
 40
0.0
 40
0.0
 40
0.0
 40
0.0
 40
0.0178571428571429
 40
0.0178571428571429
 40
0.0178571428571429
 40
0.0357142857142857
 40
0.0357142857142857
 40
0.0357142857142857
 40
0.0535714285714286
 40
0.0535714285714286
 40
0.0535714285714286
 40
0.0714285714285714
 40
0.0714285714285714
 40
0.0714285714285714
 40
0.0892857142857143
 40
0.0892857142857143
 40
0.0892857142857143
 40
0.1071428571428571
 40
0.1071428571428571
 40
0.1071428571428571
 40
0.125
 40
0.125
 40
0.125
 40
0.1428571428571428
 40
0.1428571428571428
 40
0.1428571428571428
 40
0.1607142857142857
 40
0.1607142857142857
 40
0.1607142857142857
 40
0.1785714285714285
 40
0.1785714285714285
 40
0.1785714285714285
 40
0.1964285714285714
 40
0.1964285714285714
 40
0.1964285714285714
 40
0.2142857142857143
 40
0.2142857142857143
 40
0.2142857142857143
 40
0.2321428571428571
 40
0.2321428571428571
 40
0.2321428571428571
 40
0.25
 40
0.25
 40
0.25
 40
0.2678571428571428
 40
0.2678571428571428
 40
0.2678571428571428
 40
0.2857142857142857
 40
0.2857142857142857
 40
0.2857142857142857
 40
0.3035714285714285
 40
0.3035714285714285
 40
0.3035714285714285
 40
0.3214285714285714
 40
0.3214285714285714
 40
0.3214285714285714
 40
0.3392857142857142
 40
0.3392857142857142
 40
0.3392857142857142
 40
0.3571428571428571
 40
0.3571428571428571
 40
0.3571428571428571
 40
0.375
 40
0.375
 40
0.375
 40
0.3928571428571428
 40
0.3928571428571428
 40
0.3928571428571428
 40
0.4107142857142857
 40
0.4107142857142857
 40
0.4107142857142857
 40
0.4285714285714285
 40
0.4285714285714285
 40
0.4285714285714285
 40
0.4464285714285714
 40
0.4464285714285714
 40
0.4464285714285714
 40
0.4642857142857142
 40
0.4642857142857142
 40
0.4642857142857142
 40
0.4821428571428571
 40
0.4821428571428571
 40
0.4821428571428571
 40
0.5
 40
0.5
 40
0.5
 40
0.5178571428571428
 40
0.5178571428571428
 40
0.5178571428571428
 40
0.5357142857142857
 40
0.5357142857142857
 40
0.5357142857142857
 40
0.5535714285714285
 40
0.5535714285714285
 40
0.5535714285714285
 40
0.5714285714285714
 40
0.5714285714285714
 40
0.5714285714285714
 40
0.5892857142857143
 40
0.5892857142857143
 40
0.5892857142857143
 40
0.6071428571428571
 40
0.6071428571428571
 40
0.6071428571428571
 40
0.625
 40
0.625
 40
0.625
 40
0.6428571428571428
 40
0.6428571428571428
 40
0.6428571428571428
 40
0.6607142857142857
 40
0.6607142857142857
 40
0.6607142857142857
 40
0.6785714285714285
 40
0.6785714285714285
 40
0.6785714285714285
 40
0.6964285714285714
 40
0.6964285714285714
 40
0.6964285714285714
 40
0.7142857142857142
 40
0.7142857142857142
 40
0.7142857142857142
 40
0.7321428571428571
 40
0.7321428571428571
 40
0.7321428571428571
 40
0.75
 40
0.75
 40
0.75
 40
0.7678571428571428
 40
0.7678571428571428
 40
0.7678571428571428
 40
0.7857142857142857
 40
0.7857142857142857
 40
0.7857142857142857
 40
0.8035714285714285
 40
0.8035714285714285
 40
0.8035714285714285
 40
0.8214285714285714
 40
0.8214285714285714
 40
0.8214285714285714
 40
0.8392857142857142
 40
0.8392857142857142
 40
0.8392857142857142
 40
0.8571428571428571
 40
0.8571428571428571
 40
0.8571428571428571
 40
0.875
 40
0.875
 40
0.875
 40
0.8928571428571428
 40
0.8928571428571428
 40
0.8928571428571428
 40
0.9107142857142857
 40
0.9107142857142857
 40
0.9107142857142857
 40
0.9285714285714285
 40
0.9285714285714285
 40
0.9285714285714285
 40
0.9464285714285714
 40
0.9464285714285714
 40
0.9464285714285714
 40
0.9642857142857142
 40
0.9642857142857142
 40
0.9642857142857142
 40
0.9821428571428571
 40
0.9821428571428571
 40
0.9821428571428571
 40
1.0
 40
1.0
 40
1.0
 40
1.0
 10
30.23421
 20
-23.15483
 30
0.0
 10
30.15609
 20
-22.81367
 30
0.0
 10
30.16017
 20
-22.84474
 30
0.0
 10
29.95939
 20
-22.569
 30
0.0
 10
29.54348
 20
-21.99786
 30
0.0
 10
29.64243
 20
-21.49126
 30
0.0
 10
29.14169
 20
-21.3372
 30
0.0
 10
28.89156
 20
-21.26025
 30
0.0
 10
28.59717
 20
-20.86351
 30
0.0
 10
28.5883
 20
-20.91452
 30
0.0
 10
28.56855
 20
-21.02799
 30
0.0
 10
28.63723
 20
-21.14761
 30
0.0
 10
28.50719
 20
-21.01757
 30
0.0
 10
28.49096
 20
-21.00135
 30
0.0
 10
28.49096
 20
-20.99752
 30
0.0
 10
28.51194
 20
-21.07098
 30
0.0
 10
28.67874
 20
-21.65492
 30
0.0
 10
28.62516
 20
-21.33791
 30
0.0
 10
28.34881
 20
-21.66353
 30
0.0
 10
28.15023
 20
-21.89745
 30
0.0
 10
28.24984
 20
-22.10009
 30
0.0
 10
28.20377
 20
-22.24746
 30
0.0
 10
28.17929
 20
-22.3258
 30
0.0
 10
28.26456
 20
-22.23589
 30
0.0
 10
28.2801
 20
-22.40679
 30
0.0
 10
28.30554
 20
-22.68646
 30
0.0
 10
28.2402
 20
-22.6821
 30
0.0
 10
28.38125
 20
-22.58617
 30
0.0
 10
28.45662
 20
-22.53489
 30
0.0
 10
28.56453
 20
-22.77532
 30
0.0
 10
28.57589
 20
-22.83329
 30
0.0
 10
28.5831
 20
-22.87012
 30
0.0
 10
28.57715
 20
-23.02175
 30
0.0
 10
28.71233
 20
-22.99169
 30
0.0
 10
28.80344
 20
-22.97144
 30
0.0
 10
28.9317
 20
-22.8349
 30
0.0
 10
28.96517
 20
-22.9287
 30
0.0
 10
29.00015
 20
-23.02667
 30
0.0
 10
28.95158
 20
-23.21568
 30
0.0
 10
28.84401
 20
-23.32944
 30
0.0
 10
28.6716
 20
-23.51164
 30
0.0
 10
28.49912
 20
-23.58459
 30
0.0
 10
28.33927
 20
-23.9067
 30
0.0
 10
28.06911
 20
-24.45103
 30
0.0
 10
28.36602
 20
-24.78053
 30
0.0
 10
28.28869
 20
-25.01252
 30
0.0
 10
28.27915
 20
-25.04116
 30
0.0
 10
28.26198
 20
-25.04687
 30
0.0
 10
28.09024
 20
-24.95911
 30
0.0
 10
27.87885
 20
-24.85109
 30
0.0
 10
27.24983
 20
-24.5321
 30
0.0
 10
27.17711
 20
-24.30552
 30
0.0
 10
27.1395
 20
-24.1883
 30
0.0
 10
27.26328
 20
-24.20926
 30
0.0
 10
27.42997
 20
-24.18147
 30
0.0
 10
27.48149
 20
-24.17289
 30
0.0
 10
27.47959
 20
-24.16335
 30
0.0
 10
27.35652
 20
-23.94771
 30
0.0
 10
27.23342
 20
-23.73207
 30
0.0
 10
26.98916
 20
-23.31035
 30
0.0
 10
26.86131
 20
-23.09376
 30
0.0
 10
26.69134
 20
-22.80582
 30
0.0
 10
26.75982
 20
-22.81319
 30
0.0
 10
26.31268
 20
-23.03176
 30
0.0
 10
26.23453
 20
-23.06997
 30
0.0
 10
26.25922
 20
-23.00567
 30
0.0
 10
26.1734
 20
-22.80658
 30
0.0
 10
26.09304
 20
-22.62022
 30
0.0
 10
26.07133
 20
-22.71863
 30
0.0
 10
25.8404
 20
-23.14625
 30
0.0
 10
25.7718
 20
-23.27325
 30
0.0
 10
25.76157
 20
-23.2579
 30
0.0
 10
25.95676
 20
-23.52409
 30
0.0
 10
26.0249
 20
-23.61697
 30
0.0
 10
26.29374
 20
-23.93868
 30
0.0
 10
26.29168
 20
-23.99831
 30
0.0
 10
26.27965
 20
-24.34815
 30
0.0
 10
26.72839
 20
-24.60788
 30
0.0
 10
26.96628
 20
-24.83364
 30
0.0
 10
27.19955
 20
-25.05504
 30
0.0
 10
26.98916
 20
-25.19939
 30
0.0
 10
27.19478
 20
-25.39133
 30
0.0
 10
27.2588
 20
-25.45111
 30
0.0
 10
27.15929
 20
-25.28108
 30
0.0
 10
27.23152
 20
-25.19573
 30
0.0
 10
27.25811
 20
-25.16433
 30
0.0
 10
27.30555
 20
-25.23639
 30
0.0
 10
27.31883
 20
-25.25916
 30
0.0
 10
27.35839
 20
-25.32716
 30
0.0
 10
27.25412
 20
-25.49324
 30
0.0
 10
27.43523
 20
-25.74676
 30
0.0
 10
27.58088
 20
-25.95064
 30
0.0
 10
27.42902
 20
-25.64913
 30
0.0
 10
27.52777
 20
-25.52682
 30
0.0
 10
27.55775
 20
-25.48971
 30
0.0
 10
27.59821
 20
-25.55097
 30
0.0
 10
27.62413
 20
-25.59124
 30
0.0
 10
27.67561
 20
-25.67114
 30
0.0
 10
27.53895
 20
-25.88923
 30
0.0
 10
27.77681
 20
-26.1117
 30
0.0
 10
27.8775
 20
-26.20584
 30
0.0
 10
27.79806
 20
-26.07767
 30
0.0
 10
27.81974
 20
-25.94045
 30
0.0
 10
27.84696
 20
-25.76809
 30
0.0
 10
28.05841
 20
-26.24657
 30
0.0
 10
28.50959
 20
-26.17372
 30
0.0
 10
28.70913
 20
-26.14152
 30
0.0
 10
28.71614
 20
-25.99754
 30
0.0
 10
28.71614
 20
-26.13174
 30
0.0
 10
28.71614
 20
-26.35865
 30
0.0
 10
28.63411
 20
-27.00457
 30
0.0
 10
28.52202
 20
-27.43747
 30
0.0
 10
28.3054
 20
-28.27401
 30
0.0
 10
27.82622
 20
-29.37088
 30
0.0
 10
27.33934
 20
-30.09235
 30
0.0
 10
27.07599
 20
-30.48259
 30
0.0
 10
26.76305
 20
-30.8547
 30
0.0
 10
26.60178
 20
-31.04743
 30
0.0
 10
26.40887
 20
-31.27802
 30
0.0
 10
26.28037
 20
-31.36691
 30
0.0
 10
26.63902
 20
-31.33464
 30
0.0
 10
26.80798
 20
-31.31942
 30
0.0
 10
27.08193
 20
-31.26163
 30
0.0
 10
27.1886
 20
-31.48158
 30
0.0
 10
27.28252
 20
-31.67526
 30
0.0
 10
27.18505
 20
-31.93815
 30
0.0
 10
27.27637
 20
-31.89663
 30
0.0
 10
27.35619
 20
-31.86034
 30
0.0
 10
27.60498
 20
-31.64174
 30
0.0
 10
27.86699
 20
-31.64664
 30
0.0
 10
28.20855
 20
-31.65302
 30
0.0
 10
27.98281
 20
-32.11598
 30
0.0
 10
28.05877
 20
-32.3384
 30
0.0
 10
28.09688
 20
-32.45004
 30
0.0
 10
28.35145
 20
-32.13169
 30
0.0
 10
28.58449
 20
-32.19622
 30
0.0
 10
28.82833
 20
-32.26371
 30
0.0
 10
28.82514
 20
-32.5486
 30
0.0
 10
28.78773
 20
-32.59791
 30
0.0
 10
28.76064
 20
-32.63361
 30
0.0
 10
28.20109
 20
-32.78024
 30
0.0
 10
28.13033
 20
-32.8832
 30
0.0
 10
28.1166
 20
-32.90314
 30
0.0
 10
28.15379
 20
-33.05903
 30
0.0
 10
28.26201
 20
-33.0626
 30
0.0
 10
28.26201
 20
-33.0626
 30
0.0
 10
28.92927
 20
-33.08469
 30
0.0
 10
28.92927
 20
-33.08469
 30
0.0
 10
28.92927
 20
-33.08469
 30
0.0
 10
28.92927
 20
-33.38469
 30
0.0
 10
28.92927
 20
-33.38469
 30
0.0
 10
28.92927
 20
-33.38469
 30
0.0
 10
29.72927
 20
-33.38469
 30
0.0
 10
29.72927
 20
-33.38469
 30
0.0
 10
29.72927
 20
-33.38469
 30
0.0
 10
29.72927
 20
-33.0856
 30
0.0
 10
29.72927
 20
-33.0856
 30
0.0
 10
29.95442
 20
-33.08602
 30
0.0
 10
30.12652
 20
-33.08625
 30
0.0
 10
30.16741
 20
-33.08737
 30
0.0
 10
30.2361
 20
-33.08926
 30
0.0
 10
30.24376
 20
-33.09119
 30
0.0
 10
30.24469
 20
-33.08549
 30
0.0
 10
30.24564
 20
-33.07977
 30
0.0
 10
30.23992
 20
-33.06641
 30
0.0
 10
30.23706
 20
-31.41002
 30
0.0
 10
30.23421
 20
-29.75365
 30
0.0
 10
30.23421
 20
-26.45421
 30
0.0
 10
30.23421
 20
-23.15483
 30
0.0
  0
SPLINE
  5
79
330
1F
100
AcDbEntity
  8
layer 1
 62
   250
370
    20
100
AcDbSpline
210
0.0
220
0.0
230
1.0
 70
    11
 71
     3
 72
    41
 73
    37
 74
     0
 42
0.0000000001
 43
0.0000000001
 40
0.0
 40
0.0
 40
0.0
 40
0.0
 40
0.0833333333333333
 40
0.0833333333333333
 40
0.0833333333333333
 40
0.1666666666666667
 40
0.1666666666666667
 40
0.1666666666666667
 40
0.25
 40
0.25
 40
0.25
 40
0.3333333333333333
 40
0.3333333333333333
 40
0.3333333333333333
 40
0.4166666666666666
 40
0.4166666666666666
 40
0.4166666666666666
 40
0.5
 40
0.5
 40
0.5
 40
0.5833333333333333
 40
0.5833333333333333
 40
0.5833333333333333
 40
0.6666666666666666
 40
0.6666666666666666
 40
0.6666666666666666
 40
0.75
 40
0.75
 40
0.75
 40
0.8333333333333333
 40
0.8333333333333333
 40
0.8333333333333333
 40
0.9166666666666666
 40
0.9166666666666666
 40
0.9166666666666666
 40
1.0
 40
1.0
 40
1.0
 40
1.0
 10
-16.59378
 20
-50.07174
 30
0.0
 10
-16.59378
 20
-50.07174
 30
0.0
 10
-16.59378
 20
-35.37174
 30
0.0
 10
-16.59378
 20
-35.37174
 30
0.0
 10
-16.59378
 20
-35.37174
 30
0.0
 10
-28.59378
 20
-35.37174
 30
0.0
 10
-28.59378
 20
-35.37174
 30
0.0
 10
-28.59378
 20
-35.37174
 30
0.0
 10
-28.59378
 20
-50.07174
 30
0.0
 10
-28.59378
 20
-50.07174
 30
0.0
 10
-28.59378
 20
-50.07174
 30
0.0
 10
-27.59378
 20
-50.07174
 30
0.0
 10
-27.59378
 20
-50.07174
 30
0.0
 10
-27.59378
 20
-50.07174
 30
0.0
 10
-27.59378
 20
-50.37174
 30
0.0
 10
-27.59378
 20
-50.37174
 30
0.0
 10
-27.59378
 20
-50.37174
 30
0.0
 10
-23.09378
 20
-50.37174
 30
0.0
 10
-23.09378
 20
-50.37174
 30
0.0
 10
-23.09378
 20
-50.37174
 30
0.0
 10
-23.09378
 20
-50.07174
 30
0.0
 10
-23.09378
 20
-50.07174
 30
0.0
 10
-23.09378
 20
-50.07174
 30
0.0
 10
-22.09378
 20
-50.07174
 30
0.0
 10
-22.09378
 20
-50.07174
 30
0.0
 10
-22.09378
 20
-50.07174
 30
0.0
 10
-22.09378
 20
-50.37174
 30
0.0
 10
-22.09378
 20
-50.37174
 30
0.0
 10
-22.09378
 20
-50.37174
 30
0.0
 10
-17.59378
 20
-50.37174
 30
0.0
 10
-17.59378
 20
-50.37174
 30
0.0
 10
-17.59378
 20
-50.37174
 30
0.0
 10
-17.59378
 20
-50.07174
 30
0.0
 10
-17.59378
 20
-50.07174
 30
0.0
 10
-17.59378
 20
-50.07174
 30
0.0
 10
-16.59378
 20
-50.07174
 30
0.0
 10
-16.59378
 20
-50.07174
 30
0.0
  0
SPLINE
  5
7A
330
1F
100
AcDbEntity
  8
layer 1
 62
   250
370
    20
100
AcDbSpline
210
0.0
220
0.0
230
1.0
 70
    11
 71
     3
 72
    17
 73
    13
 74
     0
 42
0.0000000001
 43
0.0000000001
 40
0.0
 40
0.0
 40
0.0
 40
0.0
 40
0.25
 40
0.25
 40
0.25
 40
0.5
 40
0.5
 40
0.5
 40
0.75
 40
0.75
 40
0.75
 40
1.0
 40
1.0
 40
1.0
 40
1.0
 10
-22.44378
 20
-39.47174
 30
0.0
 10
-22.44378
 20
-39.47174
 30
0.0
 10
-22.74378
 20
-39.47174
 30
0.0
 10
-22.74378
 20
-39.47174
 30
0.0
 10
-22.74378
 20
-39.47174
 30
0.0
 10
-22.74378
 20
-40.27174
 30
0.0
 10
-22.74378
 20
-40.27174
 30
0.0
 10
-22.74378
 20
-40.27174
 30
0.0
 10
-22.44378
 20
-40.27174
 30
0.0
 10
-22.44378
 20
-40.27174
 30
0.0
 10
-22.44378
 20
-40.27174
 30
0.0
 10
-22.44378
 20
-39.47174
 30
0.0
 10
-22.44378
 20
-39.47174
 30
0.0
  0
SPLINE
  5
7B
330
1F
100
AcDbEntity
  8
layer 1
 62
   250
370
    20
100
AcDbSpline
210
0.0
220
0.0
230
1.0
 70
    11
 71
     3
 72
    47
 73
    43
 74
     0
 42
0.0000000001
 43
0.0000000001
 40
0.0
 40
0.0
 40
0.0
 40
0.0
 40
0.0714285714285714
 40
0.0714285714285714
 40
0.0714285714285714
 40
0.1428571428571428
 40
0.1428571428571428
 40
0.1428571428571428
 40
0.2142857142857143
 40
0.2142857142857143
 40
0.2142857142857143
 40
0.2857142857142857
 40
0.2857142857142857
 40
0.2857142857142857
 40
0.3571428571428571
 40
0.3571428571428571
 40
0.3571428571428571
 40
0.4285714285714285
 40
0.4285714285714285
 40
0.4285714285714285
 40
0.5
 40
0.5
 40
0.5
 40
0.5714285714285714
 40
0.5714285714285714
 40
0.5714285714285714
 40
0.6428571428571428
 40
0.6428571428571428
 40
0.6428571428571428
 40
0.7142857142857142
 40
0.7142857142857142
 40
0.7142857142857142
 40
0.7857142857142857
 40
0.7857142857142857
 40
0.7857142857142857
 40
0.8571428571428571
 40
0.8571428571428571
 40
0.8571428571428571
 40
0.9285714285714285
 40
0.9285714285714285
 40
0.9285714285714285
 40
1.0
 40
1.0
 40
1.0
 40
1.0
 10
-16.59378
 20
-65.67174
 30
0.0
 10
-16.59378
 20
-65.67174
 30
0.0
 10
-16.59378
 20
-50.67174
 30
0.0
 10
-16.59378
 20
-50.67174
 30
0.0
 10
-16.59378
 20
-50.67174
 30
0.0
 10
-16.59378
 20
-50.37174
 30
0.0
 10
-16.59378
 20
-50.37174
 30
0.0
 10
-16.59378
 20
-50.37174
 30
0.0
 10
-17.59378
 20
-50.37174
 30
0.0
 10
-17.59378
 20
-50.37174
 30
0.0
 10
-17.59378
 20
-50.37174
 30
0.0
 10
-17.59378
 20
-50.67174
 30
0.0
 10
-17.59378
 20
-50.67174
 30
0.0
 10
-17.59378
 20
-50.67174
 30
0.0
 10
-22.09378
 20
-50.67174
 30
0.0
 10
-22.09378
 20
-50.67174
 30
0.0
 10
-22.09378
 20
-50.67174
 30
0.0
 10
-22.09378
 20
-50.37174
 30
0.0
 10
-22.09378
 20
-50.37174
 30
0.0
 10
-22.09378
 20
-50.37174
 30
0.0
 10
-23.09378
 20
-50.37174
 30
0.0
 10
-23.09378
 20
-50.37174
 30
0.0
 10
-23.09378
 20
-50.37174
 30
0.0
 10
-23.09378
 20
-50.67174
 30
0.0
 10
-23.09378
 20
-50.67174
 30
0.0
 10
-23.09378
 20
-50.67174
 30
0.0
 10
-27.59378
 20
-50.67174
 30
0.0
 10
-27.59378
 20
-50.67174
 30
0.0
 10
-27.59378
 20
-50.67174
 30
0.0
 10
-27.59378
 20
-50.37174
 30
0.0
 10
-27.59378
 20
-50.37174
 30
0.0
 10
-27.59378
 20
-50.37174
 30
0.0
 10
-28.59378
 20
-50.37174
 30
0.0
 10
-28.59378
 20
-50.37174
 30
0.0
 10
-28.59378
 20
-50.37174
 30
0.0
 10
-28.59378
 20
-50.67174
 30
0.0
 10
-28.59378
 20
-50.67174
 30
0.0
 10
-28.59378
 20
-50.67174
 30
0.0
 10
-28.59378
 20
-65.67174
 30
0.0
 10
-28.59378
 20
-65.67174
 30
0.0
 10
-28.59378
 20
-65.67174
 30
0.0
 10
-16.59378
 20
-65.67174
 30
0.0
 10
-16.59378
 20
-65.67174
 30
0.0
  0
SPLINE
  5
7C
330
1F
100
AcDbEntity
  8
layer 1
 62
   250
370
    20
100
AcDbSpline
210
0.0
220
0.0
230
1.0
 70
    11
 71
     3
 72
   224
 73
   220
 74
     0
 42
0.0000000001
 43
0.0000000001
 40
0.0
 40
0.0
 40
0.0
 40
0.0
 40
0.0136986301369863
 40
0.0136986301369863
 40
0.0136986301369863
 40
0.0273972602739726
 40
0.0273972602739726
 40
0.0273972602739726
 40
0.0410958904109589
 40
0.0410958904109589
 40
0.0410958904109589
 40
0.0547945205479452
 40
0.0547945205479452
 40
0.0547945205479452
 40
0.0684931506849315
 40
0.0684931506849315
 40
0.0684931506849315
 40
0.0821917808219178
 40
0.0821917808219178
 40
0.0821917808219178
 40
0.0958904109589041
 40
0.0958904109589041
 40
0.0958904109589041
 40
0.1095890410958904
 40
0.1095890410958904
 40
0.1095890410958904
 40
0.1232876712328767
 40
0.1232876712328767
 40
0.1232876712328767
 40
0.136986301369863
 40
0.136986301369863
 40
0.136986301369863
 40
0.1506849315068493
 40
0.1506849315068493
 40
0.1506849315068493
 40
0.1643835616438356
 40
0.1643835616438356
 40
0.1643835616438356
 40
0.1780821917808219
 40
0.1780821917808219
 40
0.1780821917808219
 40
0.1917808219178082
 40
0.1917808219178082
 40
0.1917808219178082
 40
0.2054794520547945
 40
0.2054794520547945
 40
0.2054794520547945
 40
0.2191780821917808
 40
0.2191780821917808
 40
0.2191780821917808
 40
0.2328767123287671
 40
0.2328767123287671
 40
0.2328767123287671
 40
0.2465753424657534
 40
0.2465753424657534
 40
0.2465753424657534
 40
0.2602739726027397
 40
0.2602739726027397
 40
0.2602739726027397
 40
0.273972602739726
 40
0.273972602739726
 40
0.273972602739726
 40
0.2876712328767123
 40
0.2876712328767123
 40
0.2876712328767123
 40
0.3013698630136986
 40
0.3013698630136986
 40
0.3013698630136986
 40
0.3150684931506849
 40
0.3150684931506849
 40
0.3150684931506849
 40
0.3287671232876712
 40
0.3287671232876712
 40
0.3287671232876712
 40
0.3424657534246575
 40
0.3424657534246575
 40
0.3424657534246575
 40
0.3561643835616438
 40
0.3561643835616438
 40
0.3561643835616438
 40
0.3698630136986301
 40
0.3698630136986301
 40
0.3698630136986301
 40
0.3835616438356164
 40
0.3835616438356164
 40
0.3835616438356164
 40
0.3972602739726027
 40
0.3972602739726027
 40
0.3972602739726027
 40
0.410958904109589
 40
0.410958904109589
 40
0.410958904109589
 40
0.4246575342465753
 40
0.4246575342465753
 40
0.4246575342465753
 40
0.4383561643835616
 40
0.4383561643835616
 40
0.4383561643835616
 40
0.4520547945205479
 40
0.4520547945205479
 40
0.4520547945205479
 40
0.4657534246575342
 40
0.4657534246575342
 40
0.4657534246575342
 40
0.4794520547945205
 40
0.4794520547945205
 40
0.4794520547945205
 40
0.4931506849315068
 40
0.4931506849315068
 40
0.4931506849315068
 40
0.5068493150684932
 40
0.5068493150684932
 40
0.5068493150684932
 40
0.5205479452054794
 40
0.5205479452054794
 40
0.5205479452054794
 40
0.5342465753424657
 40
0.5342465753424657
 40
0.5342465753424657
 40
0.547945205479452
 40
0.547945205479452
 40
0.547945205479452
 40
0.5616438356164384
 40
0.5616438356164384
 40
0.5616438356164384
 40
0.5753424657534246
 40
0.5753424657534246
 40
0.5753424657534246
 40
0.5890410958904109
 40
0.5890410958904109
 40
0.5890410958904109
 40
0.6027397260273972
 40
0.6027397260273972
 40
0.6027397260273972
 40
0.6164383561643836
 40
0.6164383561643836
 40
0.6164383561643836
 40
0.6301369863013698
 40
0.6301369863013698
 40
0.6301369863013698
 40
0.6438356164383561
 40
0.6438356164383561
 40
0.6438356164383561
 40
0.6575342465753424
 40
0.6575342465753424
 40
0.6575342465753424
 40
0.6712328767123288
 40
0.6712328767123288
 40
0.6712328767123288
 40
0.684931506849315
 40
0.684931506849315
 40
0.684931506849315
 40
0.6986301369863013
 40
0.6986301369863013
 40
0.6986301369863013
 40
0.7123287671232876
 40
0.7123287671232876
 40
0.7123287671232876
 40
0.726027397260274
 40
0.726027397260274
 40
0.726027397260274
 40
0.7397260273972602
 40
0.7397260273972602
 40
0.7397260273972602
 40
0.7534246575342465
 40
0.7534246575342465
 40
0.7534246575342465
 40
0.7671232876712328
 40
0.7671232876712328
 40
0.7671232876712328
 40
0.7808219178082192
 40
0.7808219178082192
 40
0.7808219178082192
 40
0.7945205479452054
 40
0.7945205479452054
 40
0.7945205479452054
 40
0.8082191780821917
 40
0.8082191780821917
 40
0.8082191780821917
 40
0.821917808219178
 40
0.821917808219178
 40
0.821917808219178
 40
0.8356164383561644
 40
0.8356164383561644
 40
0.8356164383561644
 40
0.8493150684931506
 40
0.8493150684931506
 40
0.8493150684931506
 40
0.8630136986301369
 40
0.8630136986301369
 40
0.8630136986301369
 40
0.8767123287671232
 40
0.8767123287671232
 40
0.8767123287671232
 40
0.8904109589041096
 40
0.8904109589041096
 40
0.8904109589041096
 40
0.9041095890410958
 40
0.9041095890410958
 40
0.9041095890410958
 40
0.9178082191780821
 40
0.9178082191780821
 40
0.9178082191780821
 40
0.9315068493150684
 40
0.9315068493150684
 40
0.9315068493150684
 40
0.9452054794520548
 40
0.9452054794520548
 40
0.9452054794520548
 40
0.958904109589041
 40
0.958904109589041
 40
0.958904109589041
 40
0.9726027397260273
 40
0.9726027397260273
 40
0.9726027397260273
 40
0.9863013698630136
 40
0.9863013698630136
 40
0.9863013698630136
 40
1.0
 40
1.0
 40
1.0
 40
1.0
 10
-27.50098
 20
-32.4635
 30
0.0
 10
-27.50098
 20
-32.4635
 30
0.0
 10
-27.79739
 20
-32.4635
 30
0.0
 10
-27.79739
 20
-32.4635
 30
0.0
 10
-27.79739
 20
-32.4635
 30
0.0
 10
-27.79739
 20
-33.2635
 30
0.0
 10
-27.79739
 20
-33.2635
 30
0.0
 10
-27.79739
 20
-33.2635
 30
0.0
 10
-27.49739
 20
-33.2635
 30
0.0
 10
-27.49739
 20
-33.2635
 30
0.0
 10
-27.49739
 20
-33.2635
 30
0.0
 10
-27.49143
 20
-33.52843
 30
0.0
 10
-27.49143
 20
-33.52843
 30
0.0
 10
-27.47905
 20
-33.57797
 30
0.0
 10
-25.9315
 20
-32.11483
 30
0.0
 10
-25.90908
 20
-32.18761
 30
0.0
 10
-25.90511
 20
-32.20053
 30
0.0
 10
-25.91505
 20
-32.2244
 30
0.0
 10
-25.87529
 20
-32.29299
 30
0.0
 10
-25.83553
 20
-32.36155
 30
0.0
 10
-25.74609
 20
-32.47485
 30
0.0
 10
-25.6467
 20
-32.5196
 30
0.0
 10
-25.5473
 20
-32.56431
 30
0.0
 10
-25.43798
 20
-32.54044
 30
0.0
 10
-25.38528
 20
-32.4838
 30
0.0
 10
-25.2734
 20
-32.36349
 30
0.0
 10
-25.39707
 20
-31.97482
 30
0.0
 10
-25.28093
 20
-32.12004
 30
0.0
 10
-25.18146
 20
-32.24439
 30
0.0
 10
-25.03764
 20
-32.51243
 30
0.0
 10
-24.942
 20
-32.44803
 30
0.0
 10
-24.76563
 20
-32.3293
 30
0.0
 10
-24.81962
 20
-32.01952
 30
0.0
 10
-24.84759
 20
-31.82683
 30
0.0
 10
-24.88809
 20
-31.54784
 30
0.0
 10
-24.84817
 20
-31.44382
 30
0.0
 10
-24.68059
 20
-31.24439
 30
0.0
 10
-24.63885
 20
-31.19469
 30
0.0
 10
-24.63488
 20
-31.1907
 30
0.0
 10
-24.59213
 20
-31.19866
 30
0.0
 10
-24.38558
 20
-31.23711
 30
0.0
 10
-24.40302
 20
-31.21592
 30
0.0
 10
-24.37246
 20
-31.06746
 30
0.0
 10
-24.31879
 20
-30.80683
 30
0.0
 10
-23.69901
 20
-30.2814
 30
0.0
 10
-23.4501
 20
-30.09639
 30
0.0
 10
-23.01077
 20
-29.76987
 30
0.0
 10
-22.8126
 20
-29.91236
 30
0.0
 10
-22.04868
 20
-29.60936
 30
0.0
 10
-21.63522
 20
-29.44537
 30
0.0
 10
-21.06671
 20
-29.15912
 30
0.0
 10
-20.66914
 20
-28.91959
 30
0.0
 10
-19.60715
 20
-28.27975
 30
0.0
 10
-19.47588
 20
-27.6699
 30
0.0
 10
-19.13051
 20
-27.39294
 30
0.0
 10
-18.82134
 20
-27.14501
 30
0.0
 10
-18.59363
 20
-26.9696
 30
0.0
 10
-18.3781
 20
-26.62563
 30
0.0
 10
-18.28053
 20
-26.46993
 30
0.0
 10
-18.32924
 20
-26.57041
 30
0.0
 10
-18.24395
 20
-26.50038
 30
0.0
 10
-18.11739
 20
-26.39648
 30
0.0
 10
-18.17437
 20
-26.2811
 30
0.0
 10
-18.04119
 20
-26.25687
 30
0.0
 10
-17.82693
 20
-26.21787
 30
0.0
 10
-17.71649
 20
-26.01479
 30
0.0
 10
-17.60386
 20
-25.748
 30
0.0
 10
-17.40411
 20
-25.27487
 30
0.0
 10
-17.43718
 20
-24.81593
 30
0.0
 10
-17.60584
 20
-24.33165
 30
0.0
 10
-17.73878
 20
-23.94995
 30
0.0
 10
-17.84893
 20
-23.99976
 30
0.0
 10
-17.75194
 20
-23.87543
 30
0.0
 10
-17.45584
 20
-23.4958
 30
0.0
 10
-17.60368
 20
-23.21726
 30
0.0
 10
-17.4995
 20
-23.19857
 30
0.0
 10
-17.31592
 20
-23.16564
 30
0.0
 10
-17.30217
 20
-23.19772
 30
0.0
 10
-17.091
 20
-23.03456
 30
0.0
 10
-16.97415
 20
-22.94429
 30
0.0
 10
-17.07734
 20
-22.88546
 30
0.0
 10
-17.09397
 20
-22.86659
 30
0.0
 10
-17.09397
 20
-22.86659
 30
0.0
 10
-17.2689
 20
-22.2613
 30
0.0
 10
-17.2689
 20
-22.2613
 30
0.0
 10
-17.30965
 20
-22.13407
 30
0.0
 10
-17.34145
 20
-22.0804
 30
0.0
 10
-17.42395
 20
-22.00289
 30
0.0
 10
-17.50644
 20
-21.92535
 30
0.0
 10
-17.63965
 20
-21.82397
 30
0.0
 10
-17.7768
 20
-21.76433
 30
0.0
 10
-18.26052
 20
-21.55402
 30
0.0
 10
-18.68831
 20
-21.86364
 30
0.0
 10
-18.89297
 20
-22.31796
 30
0.0
 10
-19.01331
 20
-22.5851
 30
0.0
 10
-18.89727
 20
-22.71249
 30
0.0
 10
-18.7081
 20
-22.90834
 30
0.0
 10
-18.65146
 20
-22.96698
 30
0.0
 10
-18.64152
 20
-22.97692
 30
0.0
 10
-18.65741
 20
-23.00476
 30
0.0
 10
-18.7738
 20
-23.20845
 30
0.0
 10
-19.07067
 20
-23.06462
 30
0.0
 10
-19.25973
 20
-23.11806
 30
0.0
 10
-19.50153
 20
-23.1864
 30
0.0
 10
-19.59031
 20
-23.4303
 30
0.0
 10
-19.71694
 20
-23.54744
 30
0.0
 10
-19.86534
 20
-23.6847
 30
0.0
 10
-20.09468
 20
-23.72965
 30
0.0
 10
-20.28049
 20
-24.01955
 30
0.0
 10
-20.35503
 20
-24.13583
 30
0.0
 10
-20.40872
 20
-24.27697
 30
0.0
 10
-20.51109
 20
-24.38135
 30
0.0
 10
-20.75602
 20
-24.63106
 30
0.0
 10
-21.44273
 20
-24.7548
 30
0.0
 10
-21.73561
 20
-25.32457
 30
0.0
 10
-21.81411
 20
-25.4773
 30
0.0
 10
-21.65917
 20
-25.30636
 30
0.0
 10
-21.59645
 20
-25.45875
 30
0.0
 10
-21.58128
 20
-25.4956
 30
0.0
 10
-21.75546
 20
-25.50843
 30
0.0
 10
-21.97017
 20
-25.64364
 30
0.0
 10
-22.22755
 20
-25.80572
 30
0.0
 10
-22.40667
 20
-25.99942
 30
0.0
 10
-22.53868
 20
-26.22707
 30
0.0
 10
-22.60166
 20
-26.33564
 30
0.0
 10
-22.73921
 20
-26.30936
 30
0.0
 10
-22.96111
 20
-26.44471
 30
0.0
 10
-23.08494
 20
-26.52024
 30
0.0
 10
-23.21346
 20
-26.68
 30
0.0
 10
-23.13205
 20
-26.66837
 30
0.0
 10
-23.08896
 20
-26.66221
 30
0.0
 10
-22.88394
 20
-26.56773
 30
0.0
 10
-22.90244
 20
-26.60474
 30
0.0
 10
-22.91272
 20
-26.62527
 30
0.0
 10
-22.99772
 20
-26.68329
 30
0.0
 10
-22.91241
 20
-26.68924
 30
0.0
 10
-22.86967
 20
-26.69221
 30
0.0
 10
-22.78418
 20
-26.68227
 30
0.0
 10
-22.73051
 20
-26.68327
 30
0.0
 10
-22.54749
 20
-26.68665
 30
0.0
 10
-22.65109
 20
-26.70686
 30
0.0
 10
-22.39556
 20
-26.62065
 30
0.0
 10
-22.06824
 20
-26.51021
 30
0.0
 10
-22.03042
 20
-26.48927
 30
0.0
 10
-21.98705
 20
-26.81447
 30
0.0
 10
-21.97711
 20
-26.889
 30
0.0
 10
-21.97711
 20
-26.9387
 30
0.0
 10
-21.95723
 20
-26.94765
 30
0.0
 10
-21.93736
 20
-26.9566
 30
0.0
 10
-21.89762
 20
-26.92477
 30
0.0
 10
-21.87774
 20
-26.86117
 30
0.0
 10
-21.84368
 20
-26.75217
 30
0.0
 10
-21.86809
 20
-26.56759
 30
0.0
 10
-21.85089
 20
-26.48645
 30
0.0
 10
-21.83237
 20
-26.39911
 30
0.0
 10
-21.49198
 20
-26.1716
 30
0.0
 10
-21.37579
 20
-26.08194
 30
0.0
 10
-21.21292
 20
-25.95626
 30
0.0
 10
-21.07218
 20
-25.81169
 30
0.0
 10
-20.99115
 20
-25.80662
 30
0.0
 10
-20.7629
 20
-25.79233
 30
0.0
 10
-20.71462
 20
-25.73134
 30
0.0
 10
-20.5419
 20
-25.4995
 30
0.0
 10
-20.36643
 20
-25.26396
 30
0.0
 10
-20.36296
 20
-25.24598
 30
0.0
 10
-20.1622
 20
-25.12379
 30
0.0
 10
-20.08719
 20
-25.07815
 30
0.0
 10
-19.84224
 20
-24.91253
 30
0.0
 10
-19.81532
 20
-25.12776
 30
0.0
 10
-19.79028
 20
-25.32804
 30
0.0
 10
-19.99347
 20
-25.36895
 30
0.0
 10
-19.9495
 20
-25.5174
 30
0.0
 10
-19.90769
 20
-25.65852
 30
0.0
 10
-19.75487
 20
-25.59516
 30
0.0
 10
-19.91373
 20
-25.83347
 30
0.0
 10
-19.98155
 20
-25.93521
 30
0.0
 10
-20.16827
 20
-26.22962
 30
0.0
 10
-20.24968
 20
-26.27675
 30
0.0
 10
-20.50424
 20
-26.42411
 30
0.0
 10
-20.75517
 20
-26.40763
 30
0.0
 10
-20.89872
 20
-26.76873
 30
0.0
 10
-20.98599
 20
-26.98827
 30
0.0
 10
-20.86721
 20
-26.9225
 30
0.0
 10
-21.08158
 20
-27.08282
 30
0.0
 10
-21.5236
 20
-27.41338
 30
0.0
 10
-21.92956
 20
-27.75758
 30
0.0
 10
-22.31207
 20
-28.22484
 30
0.0
 10
-22.58031
 20
-28.55252
 30
0.0
 10
-22.67908
 20
-28.8055
 30
0.0
 10
-23.0913
 20
-28.91065
 30
0.0
 10
-23.5607
 20
-29.03037
 30
0.0
 10
-23.87587
 20
-28.78334
 30
0.0
 10
-24.34365
 20
-29.08557
 30
0.0
 10
-24.44057
 20
-29.14819
 30
0.0
 10
-24.47084
 20
-29.15687
 30
0.0
 10
-24.41819
 20
-29.27344
 30
0.0
 10
-24.38073
 20
-29.35638
 30
0.0
 10
-24.3812
 20
-29.33112
 30
0.0
 10
-24.50965
 20
-29.45332
 30
0.0
 10
-24.75412
 20
-29.68589
 30
0.0
 10
-24.94631
 20
-29.92056
 30
0.0
 10
-25.103
 20
-30.22063
 30
0.0
 10
-25.14973
 20
-30.31009
 30
0.0
 10
-25.14973
 20
-30.32799
 30
0.0
 10
-25.22823
 20
-30.35582
 30
0.0
 10
-25.74573
 20
-30.53929
 30
0.0
 10
-25.89053
 20
-30.33822
 30
0.0
 10
-25.8564
 20
-30.54267
 30
0.0
 10
-25.84766
 20
-30.59508
 30
0.0
 10
-26.09318
 20
-30.60051
 30
0.0
 10
-26.17844
 20
-30.76829
 30
0.0
 10
-26.30137
 20
-31.01021
 30
0.0
 10
-26.0554
 20
-31.12836
 30
0.0
 10
-26.15457
 20
-31.20165
 30
0.0
 10
-26.15457
 20
-31.20165
 30
0.0
 10
-27.50335
 20
-32.19857
 30
0.0
 10
-27.50335
 20
-32.19857
 30
0.0
 10
-27.50335
 20
-32.19857
 30
0.0
 10
-27.50098
 20
-32.4635
 30
0.0
 10
-27.50098
 20
-32.4635
 30
0.0
  0
SPLINE
  5
7D
330
1F
100
AcDbEntity
  8
layer 1
 62
   250
370
    20
100
AcDbSpline
210
0.0
220
0.0
230
1.0
 70
    11
 71
     3
 72
    20
 73
    16
 74
     0
 42
0.0000000001
 43
0.0000000001
 40
0.0
 40
0.0
 40
0.0
 40
0.0
 40
0.2
 40
0.2
 40
0.2
 40
0.4
 40
0.4
 40
0.4
 40
0.6000000000000001
 40
0.6000000000000001
 40
0.6000000000000001
 40
0.8
 40
0.8
 40
0.8
 40
1.0
 40
1.0
 40
1.0
 40
1.0
 10
-18.2971
 20
-22.1706
 30
0.0
 10
-18.23415
 20
-22.22618
 30
0.0
 10
-18.11261
 20
-22.34512
 30
0.0
 10
-18.0869
 20
-22.41164
 30
0.0
 10
-18.06591
 20
-22.46591
 30
0.0
 10
-18.34103
 20
-22.8404
 30
0.0
 10
-18.35575
 20
-22.83357
 30
0.0
 10
-18.40783
 20
-22.80939
 30
0.0
 10
-18.1647
 20
-22.50849
 30
0.0
 10
-18.16044
 20
-22.47004
 30
0.0
 10
-18.15537
 20
-22.42433
 30
0.0
 10
-18.46576
 20
-22.10073
 30
0.0
 10
-18.38457
 20
-22.11319
 30
0.0
 10
-18.37166
 20
-22.11518
 30
0.0
 10
-18.34581
 20
-22.12762
 30
0.0
 10
-18.2971
 20
-22.1706
 30
0.0
  0
SPLINE
  5
7E
330
1F
100
AcDbEntity
  8
layer 1
 62
   250
370
    20
100
AcDbSpline
210
0.0
220
0.0
230
1.0
 70
    11
 71
     3
 72
    29
 73
    25
 74
     0
 42
0.0000000001
 43
0.0000000001
 40
0.0
 40
0.0
 40
0.0
 40
0.0
 40
0.125
 40
0.125
 40
0.125
 40
0.25
 40
0.25
 40
0.25
 40
0.375
 40
0.375
 40
0.375
 40
0.5
 40
0.5
 40
0.5
 40
0.625
 40
0.625
 40
0.625
 40
0.75
 40
0.75
 40
0.75
 40
0.875
 40
0.875
 40
0.875
 40
1.0
 40
1.0
 40
1.0
 40
1.0
 10
-17.92153
 20
-21.94749
 30
0.0
 10
-17.84949
 20
-22.07026
 30
0.0
 10
-17.97251
 20
-22.28677
 30
0.0
 10
-17.889
 20
-22.39264
 30
0.0
 10
-17.77468
 20
-22.53756
 30
0.0
 10
-17.68351
 20
-22.4372
 30
0.0
 10
-17.48584
 20
-22.81644
 30
0.0
 10
-17.46188
 20
-22.86242
 30
0.0
 10
-17.43578
 20
-22.86017
 30
0.0
 10
-17.32227
 20
-22.85399
 30
0.0
 10
-17.20913
 20
-22.84784
 30
0.0
 10
-17.21512
 20
-22.94575
 30
0.0
 10
-17.30834
 20
-22.94674
 30
0.0
 10
-17.72507
 20
-22.95123
 30
0.0
 10
-17.41011
 20
-22.82681
 30
0.0
 10
-17.84207
 20
-22.54635
 30
0.0
 10
-18.17439
 20
-22.33059
 30
0.0
 10
-17.88855
 20
-22.10618
 30
0.0
 10
-18.02859
 20
-21.95407
 30
0.0
 10
-18.04533
 20
-21.93588
 30
0.0
 10
-18.09447
 20
-21.89612
 30
0.0
 10
-18.09914
 20
-21.87577
 30
0.0
 10
-18.1054
 20
-21.84849
 30
0.0
 10
-18.02548
 20
-21.77605
 30
0.0
 10
-17.92153
 20
-21.94749
 30
0.0
  0
SPLINE
  5
7F
330
1F
100
AcDbEntity
  8
layer 1
 62
   250
370
    20
100
AcDbSpline
210
0.0
220
0.0
230
1.0
 70
    11
 71
     3
 72
    17
 73
    13
 74
     0
 42
0.0000000001
 43
0.0000000001
 40
0.0
 40
0.0
 40
0.0
 40
0.0
 40
0.25
 40
0.25
 40
0.25
 40
0.5
 40
0.5
 40
0.5
 40
0.75
 40
0.75
 40
0.75
 40
1.0
 40
1.0
 40
1.0
 40
1.0
 10
-17.63498
 20
-22.10192
 30
0.0
 10
-17.47552
 20
-22.16001
 30
0.0
 10
-17.39571
 20
-22.16945
 30
0.0
 10
-17.48476
 20
-22.24469
 30
0.0
 10
-17.57332
 20
-22.31952
 30
0.0
 10
-17.79053
 20
-22.21532
 30
0.0
 10
-17.78543
 20
-22.19289
 30
0.0
 10
-17.78543
 20
-22.19289
 30
0.0
 10
-17.67199
 20
-22.09138
 30
0.0
 10
-17.67199
 20
-22.09138
 30
0.0
 10
-17.66852
 20
-22.09099
 30
0.0
 10
-17.66431
 20
-22.09124
 30
0.0
 10
-17.63498
 20
-22.10192
 30
0.0
  0
SPLINE
  5
80
330
1F
100
AcDbEntity
  8
layer 1
 62
   250
370
    20
100
AcDbSpline
210
0.0
220
0.0
230
1.0
 70
    11
 71
     3
 72
    11
 73
     7
 74
     0
 42
0.0000000001
 43
0.0000000001
 40
0.0
 40
0.0
 40
0.0
 40
0.0
 40
0.5
 40
0.5
 40
0.5
 40
1.0
 40
1.0
 40
1.0
 40
1.0
 10
-17.80168
 20
-25.05214
 30
0.0
 10
-18.08947
 20
-25.3658
 30
0.0
 10
-17.90852
 20
-25.84162
 30
0.0
 10
-17.72712
 20
-25.60724
 30
0.0
 10
-17.53313
 20
-25.3566
 30
0.0
 10
-17.54041
 20
-24.76727
 30
0.0
 10
-17.80168
 20
-25.05214
 30
0.0
  0
SPLINE
  5
81
330
1F
100
AcDbEntity
  8
layer 1
 62
   250
370
    20
100
AcDbSpline
210
0.0
220
0.0
230
1.0
 70
    11
 71
     3
 72
    41
 73
    37
 74
     0
 42
0.0000000001
 43
0.0000000001
 40
0.0
 40
0.0
 40
0.0
 40
0.0
 40
0.0833333333333333
 40
0.0833333333333333
 40
0.0833333333333333
 40
0.1666666666666667
 40
0.1666666666666667
 40
0.1666666666666667
 40
0.25
 40
0.25
 40
0.25
 40
0.3333333333333333
 40
0.3333333333333333
 40
0.3333333333333333
 40
0.4166666666666666
 40
0.4166666666666666
 40
0.4166666666666666
 40
0.5
 40
0.5
 40
0.5
 40
0.5833333333333333
 40
0.5833333333333333
 40
0.5833333333333333
 40
0.6666666666666666
 40
0.6666666666666666
 40
0.6666666666666666
 40
0.75
 40
0.75
 40
0.75
 40
0.8333333333333333
 40
0.8333333333333333
 40
0.8333333333333333
 40
0.9166666666666666
 40
0.9166666666666666
 40
0.9166666666666666
 40
1.0
 40
1.0
 40
1.0
 40
1.0
 10
-30.98711
 20
-50.07174
 30
0.0
 10
-30.98711
 20
-50.07174
 30
0.0
 10
-30.98711
 20
-35.37174
 30
0.0
 10
-30.98711
 20
-35.37174
 30
0.0
 10
-30.98711
 20
-35.37174
 30
0.0
 10
-42.98711
 20
-35.37174
 30
0.0
 10
-42.98711
 20
-35.37174
 30
0.0
 10
-42.98711
 20
-35.37174
 30
0.0
 10
-42.98711
 20
-50.07174
 30
0.0
 10
-42.98711
 20
-50.07174
 30
0.0
 10
-42.98711
 20
-50.07174
 30
0.0
 10
-41.98711
 20
-50.07174
 30
0.0
 10
-41.98711
 20
-50.07174
 30
0.0
 10
-41.98711
 20
-50.07174
 30
0.0
 10
-41.98711
 20
-50.37174
 30
0.0
 10
-41.98711
 20
-50.37174
 30
0.0
 10
-41.98711
 20
-50.37174
 30
0.0
 10
-37.48711
 20
-50.37174
 30
0.0
 10
-37.48711
 20
-50.37174
 30
0.0
 10
-37.48711
 20
-50.37174
 30
0.0
 10
-37.48711
 20
-50.07174
 30
0.0
 10
-37.48711
 20
-50.07174
 30
0.0
 10
-37.48711
 20
-50.07174
 30
0.0
 10
-36.48711
 20
-50.07174
 30
0.0
 10
-36.48711
 20
-50.07174
 30
0.0
 10
-36.48711
 20
-50.07174
 30
0.0
 10
-36.48711
 20
-50.37174
 30
0.0
 10
-36.48711
 20
-50.37174
 30
0.0
 10
-36.48711
 20
-50.37174
 30
0.0
 10
-31.98711
 20
-50.37174
 30
0.0
 10
-31.98711
 20
-50.37174
 30
0.0
 10
-31.98711
 20
-50.37174
 30
0.0
 10
-31.98711
 20
-50.07174
 30
0.0
 10
-31.98711
 20
-50.07174
 30
0.0
 10
-31.98711
 20
-50.07174
 30
0.0
 10
-30.98711
 20
-50.07174
 30
0.0
 10
-30.98711
 20
-50.07174
 30
0.0
  0
SPLINE
  5
82
330
1F
100
AcDbEntity
  8
layer 1
 62
   250
370
    20
100
AcDbSpline
210
0.0
220
0.0
230
1.0
 70
    11
 71
     3
 72
    17
 73
    13
 74
     0
 42
0.0000000001
 43
0.0000000001
 40
0.0
 40
0.0
 40
0.0
 40
0.0
 40
0.25
 40
0.25
 40
0.25
 40
0.5
 40
0.5
 40
0.5
 40
0.75
 40
0.75
 40
0.75
 40
1.0
 40
1.0
 40
1.0
 40
1.0
 10
-36.83711
 20
-42.40671
 30
0.0
 10
-36.83711
 20
-42.40671
 30
0.0
 10
-37.13711
 20
-42.40671
 30
0.0
 10
-37.13711
 20
-42.40671
 30
0.0
 10
-37.13711
 20
-42.40671
 30
0.0
 10
-37.13711
 20
-43.20671
 30
0.0
 10
-37.13711
 20
-43.20671
 30
0.0
 10
-37.13711
 20
-43.20671
 30
0.0
 10
-36.83711
 20
-43.20671
 30
0.0
 10
-36.83711
 20
-43.20671
 30
0.0
 10
-36.83711
 20
-43.20671
 30
0.0
 10
-36.83711
 20
-42.40671
 30
0.0
 10
-36.83711
 20
-42.40671
 30
0.0
  0
SPLINE
  5
83
330
1F
100
AcDbEntity
  8
layer 1
 62
   250
370
    20
100
AcDbSpline
210
0.0
220
0.0
230
1.0
 70
    11
 71
     3
 72
    47
 73
    43
 74
     0
 42
0.0000000001
 43
0.0000000001
 40
0.0
 40
0.0
 40
0.0
 40
0.0
 40
0.0714285714285714
 40
0.0714285714285714
 40
0.0714285714285714
 40
0.1428571428571428
 40
0.1428571428571428
 40
0.1428571428571428
 40
0.2142857142857143
 40
0.2142857142857143
 40
0.2142857142857143
 40
0.2857142857142857
 40
0.2857142857142857
 40
0.2857142857142857
 40
0.3571428571428571
 40
0.3571428571428571
 40
0.3571428571428571
 40
0.4285714285714285
 40
0.4285714285714285
 40
0.4285714285714285
 40
0.5
 40
0.5
 40
0.5
 40
0.5714285714285714
 40
0.5714285714285714
 40
0.5714285714285714
 40
0.6428571428571428
 40
0.6428571428571428
 40
0.6428571428571428
 40
0.7142857142857142
 40
0.7142857142857142
 40
0.7142857142857142
 40
0.7857142857142857
 40
0.7857142857142857
 40
0.7857142857142857
 40
0.8571428571428571
 40
0.8571428571428571
 40
0.8571428571428571
 40
0.9285714285714285
 40
0.9285714285714285
 40
0.9285714285714285
 40
1.0
 40
1.0
 40
1.0
 40
1.0
 10
-30.98711
 20
-65.67174
 30
0.0
 10
-30.98711
 20
-65.67174
 30
0.0
 10
-30.98711
 20
-50.67174
 30
0.0
 10
-30.98711
 20
-50.67174
 30
0.0
 10
-30.98711
 20
-50.67174
 30
0.0
 10
-30.98711
 20
-50.37174
 30
0.0
 10
-30.98711
 20
-50.37174
 30
0.0
 10
-30.98711
 20
-50.37174
 30
0.0
 10
-31.98711
 20
-50.37174
 30
0.0
 10
-31.98711
 20
-50.37174
 30
0.0
 10
-31.98711
 20
-50.37174
 30
0.0
 10
-31.98711
 20
-50.67174
 30
0.0
 10
-31.98711
 20
-50.67174
 30
0.0
 10
-31.98711
 20
-50.67174
 30
0.0
 10
-36.48711
 20
-50.67174
 30
0.0
 10
-36.48711
 20
-50.67174
 30
0.0
 10
-36.48711
 20
-50.67174
 30
0.0
 10
-36.48711
 20
-50.37174
 30
0.0
 10
-36.48711
 20
-50.37174
 30
0.0
 10
-36.48711
 20
-50.37174
 30
0.0
 10
-37.48711
 20
-50.37174
 30
0.0
 10
-37.48711
 20
-50.37174
 30
0.0
 10
-37.48711
 20
-50.37174
 30
0.0
 10
-37.48711
 20
-50.67174
 30
0.0
 10
-37.48711
 20
-50.67174
 30
0.0
 10
-37.48711
 20
-50.67174
 30
0.0
 10
-41.98711
 20
-50.67174
 30
0.0
 10
-41.98711
 20
-50.67174
 30
0.0
 10
-41.98711
 20
-50.67174
 30
0.0
 10
-41.98711
 20
-50.37174
 30
0.0
 10
-41.98711
 20
-50.37174
 30
0.0
 10
-41.98711
 20
-50.37174
 30
0.0
 10
-42.98711
 20
-50.37174
 30
0.0
 10
-42.98711
 20
-50.37174
 30
0.0
 10
-42.98711
 20
-50.37174
 30
0.0
 10
-42.98711
 20
-50.67174
 30
0.0
 10
-42.98711
 20
-50.67174
 30
0.0
 10
-42.98711
 20
-50.67174
 30
0.0
 10
-42.98711
 20
-65.67174
 30
0.0
 10
-42.98711
 20
-65.67174
 30
0.0
 10
-42.98711
 20
-65.67174
 30
0.0
 10
-30.98711
 20
-65.67174
 30
0.0
 10
-30.98711
 20
-65.67174
 30
0.0
  0
SPLINE
  5
84
330
1F
100
AcDbEntity
  8
layer 1
 62
   250
370
    20
100
AcDbSpline
210
0.0
220
0.0
230
1.0
 70
    11
 71
     3
 72
    41
 73
    37
 74
     0
 42
0.0000000001
 43
0.0000000001
 40
0.0
 40
0.0
 40
0.0
 40
0.0
 40
0.0833333333333333
 40
0.0833333333333333
 40
0.0833333333333333
 40
0.1666666666666667
 40
0.1666666666666667
 40
0.1666666666666667
 40
0.25
 40
0.25
 40
0.25
 40
0.3333333333333333
 40
0.3333333333333333
 40
0.3333333333333333
 40
0.4166666666666666
 40
0.4166666666666666
 40
0.4166666666666666
 40
0.5
 40
0.5
 40
0.5
 40
0.5833333333333333
 40
0.5833333333333333
 40
0.5833333333333333
 40
0.6666666666666666
 40
0.6666666666666666
 40
0.6666666666666666
 40
0.75
 40
0.75
 40
0.75
 40
0.8333333333333333
 40
0.8333333333333333
 40
0.8333333333333333
 40
0.9166666666666666
 40
0.9166666666666666
 40
0.9166666666666666
 40
1.0
 40
1.0
 40
1.0
 40
1.0
 10
1.69422
 20
-50.07174
 30
0.0
 10
1.69422
 20
-50.07174
 30
0.0
 10
1.69422
 20
-35.37174
 30
0.0
 10
1.69422
 20
-35.37174
 30
0.0
 10
1.69422
 20
-35.37174
 30
0.0
 10
-10.30578
 20
-35.37174
 30
0.0
 10
-10.30578
 20
-35.37174
 30
0.0
 10
-10.30578
 20
-35.37174
 30
0.0
 10
-10.30578
 20
-50.07174
 30
0.0
 10
-10.30578
 20
-50.07174
 30
0.0
 10
-10.30578
 20
-50.07174
 30
0.0
 10
-9.30578
 20
-50.07174
 30
0.0
 10
-9.30578
 20
-50.07174
 30
0.0
 10
-9.30578
 20
-50.07174
 30
0.0
 10
-9.30578
 20
-50.37174
 30
0.0
 10
-9.30578
 20
-50.37174
 30
0.0
 10
-9.30578
 20
-50.37174
 30
0.0
 10
-4.80578
 20
-50.37174
 30
0.0
 10
-4.80578
 20
-50.37174
 30
0.0
 10
-4.80578
 20
-50.37174
 30
0.0
 10
-4.80578
 20
-50.07174
 30
0.0
 10
-4.80578
 20
-50.07174
 30
0.0
 10
-4.80578
 20
-50.07174
 30
0.0
 10
-3.80578
 20
-50.07174
 30
0.0
 10
-3.80578
 20
-50.07174
 30
0.0
 10
-3.80578
 20
-50.07174
 30
0.0
 10
-3.80578
 20
-50.37174
 30
0.0
 10
-3.80578
 20
-50.37174
 30
0.0
 10
-3.80578
 20
-50.37174
 30
0.0
 10
0.69422
 20
-50.37174
 30
0.0
 10
0.69422
 20
-50.37174
 30
0.0
 10
0.69422
 20
-50.37174
 30
0.0
 10
0.69422
 20
-50.07174
 30
0.0
 10
0.69422
 20
-50.07174
 30
0.0
 10
0.69422
 20
-50.07174
 30
0.0
 10
1.69422
 20
-50.07174
 30
0.0
 10
1.69422
 20
-50.07174
 30
0.0
  0
SPLINE
  5
85
330
1F
100
AcDbEntity
  8
layer 1
 62
   250
370
    20
100
AcDbSpline
210
0.0
220
0.0
230
1.0
 70
    11
 71
     3
 72
    47
 73
    43
 74
     0
 42
0.0000000001
 43
0.0000000001
 40
0.0
 40
0.0
 40
0.0
 40
0.0
 40
0.0714285714285714
 40
0.0714285714285714
 40
0.0714285714285714
 40
0.1428571428571428
 40
0.1428571428571428
 40
0.1428571428571428
 40
0.2142857142857143
 40
0.2142857142857143
 40
0.2142857142857143
 40
0.2857142857142857
 40
0.2857142857142857
 40
0.2857142857142857
 40
0.3571428571428571
 40
0.3571428571428571
 40
0.3571428571428571
 40
0.4285714285714285
 40
0.4285714285714285
 40
0.4285714285714285
 40
0.5
 40
0.5
 40
0.5
 40
0.5714285714285714
 40
0.5714285714285714
 40
0.5714285714285714
 40
0.6428571428571428
 40
0.6428571428571428
 40
0.6428571428571428
 40
0.7142857142857142
 40
0.7142857142857142
 40
0.7142857142857142
 40
0.7857142857142857
 40
0.7857142857142857
 40
0.7857142857142857
 40
0.8571428571428571
 40
0.8571428571428571
 40
0.8571428571428571
 40
0.9285714285714285
 40
0.9285714285714285
 40
0.9285714285714285
 40
1.0
 40
1.0
 40
1.0
 40
1.0
 10
1.69422
 20
-65.67174
 30
0.0
 10
1.69422
 20
-65.67174
 30
0.0
 10
1.69422
 20
-50.67174
 30
0.0
 10
1.69422
 20
-50.67174
 30
0.0
 10
1.69422
 20
-50.67174
 30
0.0
 10
1.69422
 20
-50.37174
 30
0.0
 10
1.69422
 20
-50.37174
 30
0.0
 10
1.69422
 20
-50.37174
 30
0.0
 10
0.69422
 20
-50.37174
 30
0.0
 10
0.69422
 20
-50.37174
 30
0.0
 10
0.69422
 20
-50.37174
 30
0.0
 10
0.69422
 20
-50.67174
 30
0.0
 10
0.69422
 20
-50.67174
 30
0.0
 10
0.69422
 20
-50.67174
 30
0.0
 10
-3.80578
 20
-50.67174
 30
0.0
 10
-3.80578
 20
-50.67174
 30
0.0
 10
-3.80578
 20
-50.67174
 30
0.0
 10
-3.80578
 20
-50.37174
 30
0.0
 10
-3.80578
 20
-50.37174
 30
0.0
 10
-3.80578
 20
-50.37174
 30
0.0
 10
-4.80578
 20
-50.37174
 30
0.0
 10
-4.80578
 20
-50.37174
 30
0.0
 10
-4.80578
 20
-50.37174
 30
0.0
 10
-4.80578
 20
-50.67174
 30
0.0
 10
-4.80578
 20
-50.67174
 30
0.0
 10
-4.80578
 20
-50.67174
 30
0.0
 10
-9.30578
 20
-50.67174
 30
0.0
 10
-9.30578
 20
-50.67174
 30
0.0
 10
-9.30578
 20
-50.67174
 30
0.0
 10
-9.30578
 20
-50.37174
 30
0.0
 10
-9.30578
 20
-50.37174
 30
0.0
 10
-9.30578
 20
-50.37174
 30
0.0
 10
-10.30578
 20
-50.37174
 30
0.0
 10
-10.30578
 20
-50.37174
 30
0.0
 10
-10.30578
 20
-50.37174
 30
0.0
 10
-10.30578
 20
-50.67174
 30
0.0
 10
-10.30578
 20
-50.67174
 30
0.0
 10
-10.30578
 20
-50.67174
 30
0.0
 10
-10.30578
 20
-65.67174
 30
0.0
 10
-10.30578
 20
-65.67174
 30
0.0
 10
-10.30578
 20
-65.67174
 30
0.0
 10
1.69422
 20
-65.67174
 30
0.0
 10
1.69422
 20
-65.67174
 30
0.0
  0
SPLINE
  5
86
330
1F
100
AcDbEntity
  8
layer 1
 62
   250
370
    20
100
AcDbSpline
210
0.0
220
0.0
230
1.0
 70
    11
 71
     3
 72
    17
 73
    13
 74
     0
 42
0.0000000001
 43
0.0000000001
 40
0.0
 40
0.0
 40
0.0
 40
0.0
 40
0.25
 40
0.25
 40
0.25
 40
0.5
 40
0.5
 40
0.5
 40
0.75
 40
0.75
 40
0.75
 40
1.0
 40
1.0
 40
1.0
 40
1.0
 10
-4.11532
 20
-58.81423
 30
0.0
 10
-4.11532
 20
-58.81423
 30
0.0
 10
-4.41532
 20
-58.81423
 30
0.0
 10
-4.41532
 20
-58.81423
 30
0.0
 10
-4.41532
 20
-58.81423
 30
0.0
 10
-4.41532
 20
-59.61423
 30
0.0
 10
-4.41532
 20
-59.61423
 30
0.0
 10
-4.41532
 20
-59.61423
 30
0.0
 10
-4.11532
 20
-59.61423
 30
0.0
 10
-4.11532
 20
-59.61423
 30
0.0
 10
-4.11532
 20
-59.61423
 30
0.0
 10
-4.11532
 20
-58.81423
 30
0.0
 10
-4.11532
 20
-58.81423
 30
0.0
  0
SPLINE
  5
87
330
1F
100
AcDbEntity
  8
layer 1
 62
   250
370
    20
100
AcDbSpline
210
0.0
220
0.0
230
1.0
 70
    11
 71
     3
 72
    17
 73
    13
 74
     0
 42
0.0000000001
 43
0.0000000001
 40
0.0
 40
0.0
 40
0.0
 40
0.0
 40
0.25
 40
0.25
 40
0.25
 40
0.5
 40
0.5
 40
0.5
 40
0.75
 40
0.75
 40
0.75
 40
1.0
 40
1.0
 40
1.0
 40
1.0
 10
-4.15577
 20
-53.62174
 30
0.0
 10
-4.15577
 20
-53.62174
 30
0.0
 10
-4.45577
 20
-53.62174
 30
0.0
 10
-4.45577
 20
-53.62174
 30
0.0
 10
-4.45577
 20
-53.62174
 30
0.0
 10
-4.45577
 20
-54.42174
 30
0.0
 10
-4.45577
 20
-54.42174
 30
0.0
 10
-4.45577
 20
-54.42174
 30
0.0
 10
-4.15577
 20
-54.42174
 30
0.0
 10
-4.15577
 20
-54.42174
 30
0.0
 10
-4.15577
 20
-54.42174
 30
0.0
 10
-4.15577
 20
-53.62174
 30
0.0
 10
-4.15577
 20
-53.62174
 30
0.0
  0
SPLINE
  5
88
330
1F
100
AcDbEntity
  8
layer 1
 62
   250
370
    20
100
AcDbSpline
210
0.0
220
0.0
230
1.0
 70
    11
 71
     3
 72
    41
 73
    37
 74
     0
 42
0.0000000001
 43
0.0000000001
 40
0.0
 40
0.0
 40
0.0
 40
0.0
 40
0.0833333333333333
 40
0.0833333333333333
 40
0.0833333333333333
 40
0.1666666666666667
 40
0.1666666666666667
 40
0.1666666666666667
 40
0.25
 40
0.25
 40
0.25
 40
0.3333333333333333
 40
0.3333333333333333
 40
0.3333333333333333
 40
0.4166666666666666
 40
0.4166666666666666
 40
0.4166666666666666
 40
0.5
 40
0.5
 40
0.5
 40
0.5833333333333333
 40
0.5833333333333333
 40
0.5833333333333333
 40
0.6666666666666666
 40
0.6666666666666666
 40
0.6666666666666666
 40
0.75
 40
0.75
 40
0.75
 40
0.8333333333333333
 40
0.8333333333333333
 40
0.8333333333333333
 40
0.9166666666666666
 40
0.9166666666666666
 40
0.9166666666666666
 40
1.0
 40
1.0
 40
1.0
 40
1.0
 10
15.41022
 20
-50.07174
 30
0.0
 10
15.41022
 20
-50.07174
 30
0.0
 10
15.41022
 20
-35.37174
 30
0.0
 10
15.41022
 20
-35.37174
 30
0.0
 10
15.41022
 20
-35.37174
 30
0.0
 10
3.41022
 20
-35.37174
 30
0.0
 10
3.41022
 20
-35.37174
 30
0.0
 10
3.41022
 20
-35.37174
 30
0.0
 10
3.41022
 20
-50.07174
 30
0.0
 10
3.41022
 20
-50.07174
 30
0.0
 10
3.41022
 20
-50.07174
 30
0.0
 10
4.41022
 20
-50.07174
 30
0.0
 10
4.41022
 20
-50.07174
 30
0.0
 10
4.41022
 20
-50.07174
 30
0.0
 10
4.41022
 20
-50.37174
 30
0.0
 10
4.41022
 20
-50.37174
 30
0.0
 10
4.41022
 20
-50.37174
 30
0.0
 10
8.91022
 20
-50.37174
 30
0.0
 10
8.91022
 20
-50.37174
 30
0.0
 10
8.91022
 20
-50.37174
 30
0.0
 10
8.91022
 20
-50.07174
 30
0.0
 10
8.91022
 20
-50.07174
 30
0.0
 10
8.91022
 20
-50.07174
 30
0.0
 10
9.91022
 20
-50.07174
 30
0.0
 10
9.91022
 20
-50.07174
 30
0.0
 10
9.91022
 20
-50.07174
 30
0.0
 10
9.91022
 20
-50.37174
 30
0.0
 10
9.91022
 20
-50.37174
 30
0.0
 10
9.91022
 20
-50.37174
 30
0.0
 10
14.41022
 20
-50.37174
 30
0.0
 10
14.41022
 20
-50.37174
 30
0.0
 10
14.41022
 20
-50.37174
 30
0.0
 10
14.41022
 20
-50.07174
 30
0.0
 10
14.41022
 20
-50.07174
 30
0.0
 10
14.41022
 20
-50.07174
 30
0.0
 10
15.41022
 20
-50.07174
 30
0.0
 10
15.41022
 20
-50.07174
 30
0.0
  0
SPLINE
  5
89
330
1F
100
AcDbEntity
  8
layer 1
 62
   250
370
    20
100
AcDbSpline
210
0.0
220
0.0
230
1.0
 70
    11
 71
     3
 72
    47
 73
    43
 74
     0
 42
0.0000000001
 43
0.0000000001
 40
0.0
 40
0.0
 40
0.0
 40
0.0
 40
0.0714285714285714
 40
0.0714285714285714
 40
0.0714285714285714
 40
0.1428571428571428
 40
0.1428571428571428
 40
0.1428571428571428
 40
0.2142857142857143
 40
0.2142857142857143
 40
0.2142857142857143
 40
0.2857142857142857
 40
0.2857142857142857
 40
0.2857142857142857
 40
0.3571428571428571
 40
0.3571428571428571
 40
0.3571428571428571
 40
0.4285714285714285
 40
0.4285714285714285
 40
0.4285714285714285
 40
0.5
 40
0.5
 40
0.5
 40
0.5714285714285714
 40
0.5714285714285714
 40
0.5714285714285714
 40
0.6428571428571428
 40
0.6428571428571428
 40
0.6428571428571428
 40
0.7142857142857142
 40
0.7142857142857142
 40
0.7142857142857142
 40
0.7857142857142857
 40
0.7857142857142857
 40
0.7857142857142857
 40
0.8571428571428571
 40
0.8571428571428571
 40
0.8571428571428571
 40
0.9285714285714285
 40
0.9285714285714285
 40
0.9285714285714285
 40
1.0
 40
1.0
 40
1.0
 40
1.0
 10
15.41022
 20
-65.67174
 30
0.0
 10
15.41022
 20
-65.67174
 30
0.0
 10
15.41022
 20
-50.67174
 30
0.0
 10
15.41022
 20
-50.67174
 30
0.0
 10
15.41022
 20
-50.67174
 30
0.0
 10
15.41022
 20
-50.37174
 30
0.0
 10
15.41022
 20
-50.37174
 30
0.0
 10
15.41022
 20
-50.37174
 30
0.0
 10
14.41022
 20
-50.37174
 30
0.0
 10
14.41022
 20
-50.37174
 30
0.0
 10
14.41022
 20
-50.37174
 30
0.0
 10
14.41022
 20
-50.67174
 30
0.0
 10
14.41022
 20
-50.67174
 30
0.0
 10
14.41022
 20
-50.67174
 30
0.0
 10
9.91022
 20
-50.67174
 30
0.0
 10
9.91022
 20
-50.67174
 30
0.0
 10
9.91022
 20
-50.67174
 30
0.0
 10
9.91022
 20
-50.37174
 30
0.0
 10
9.91022
 20
-50.37174
 30
0.0
 10
9.91022
 20
-50.37174
 30
0.0
 10
8.91022
 20
-50.37174
 30
0.0
 10
8.91022
 20
-50.37174
 30
0.0
 10
8.91022
 20
-50.37174
 30
0.0
 10
8.91022
 20
-50.67174
 30
0.0
 10
8.91022
 20
-50.67174
 30
0.0
 10
8.91022
 20
-50.67174
 30
0.0
 10
4.41022
 20
-50.67174
 30
0.0
 10
4.41022
 20
-50.67174
 30
0.0
 10
4.41022
 20
-50.67174
 30
0.0
 10
4.41022
 20
-50.37174
 30
0.0
 10
4.41022
 20
-50.37174
 30
0.0
 10
4.41022
 20
-50.37174
 30
0.0
 10
3.41022
 20
-50.37174
 30
0.0
 10
3.41022
 20
-50.37174
 30
0.0
 10
3.41022
 20
-50.37174
 30
0.0
 10
3.41022
 20
-50.67174
 30
0.0
 10
3.41022
 20
-50.67174
 30
0.0
 10
3.41022
 20
-50.67174
 30
0.0
 10
3.41022
 20
-65.67174
 30
0.0
 10
3.41022
 20
-65.67174
 30
0.0
 10
3.41022
 20
-65.67174
 30
0.0
 10
15.41022
 20
-65.67174
 30
0.0
 10
15.41022
 20
-65.67174
 30
0.0
  0
SPLINE
  5
8A
330
1F
100
AcDbEntity
  8
layer 1
 62
   250
370
    20
100
AcDbSpline
210
0.0
220
0.0
230
1.0
 70
    11
 71
     3
 72
    17
 73
    13
 74
     0
 42
0.0000000001
 43
0.0000000001
 40
0.0
 40
0.0
 40
0.0
 40
0.0
 40
0.25
 40
0.25
 40
0.25
 40
0.5
 40
0.5
 40
0.5
 40
0.75
 40
0.75
 40
0.75
 40
1.0
 40
1.0
 40
1.0
 40
1.0
 10
9.56418
 20
-55.75395
 30
0.0
 10
9.56418
 20
-55.75395
 30
0.0
 10
9.26418
 20
-55.75395
 30
0.0
 10
9.26418
 20
-55.75395
 30
0.0
 10
9.26418
 20
-55.75395
 30
0.0
 10
9.26418
 20
-56.55395
 30
0.0
 10
9.26418
 20
-56.55395
 30
0.0
 10
9.26418
 20
-56.55395
 30
0.0
 10
9.56418
 20
-56.55395
 30
0.0
 10
9.56418
 20
-56.55395
 30
0.0
 10
9.56418
 20
-56.55395
 30
0.0
 10
9.56418
 20
-55.75395
 30
0.0
 10
9.56418
 20
-55.75395
 30
0.0
  0
SPLINE
  5
8B
330
1F
100
AcDbEntity
  8
layer 1
 62
   250
370
    20
100
AcDbSpline
210
0.0
220
0.0
230
1.0
 70
    11
 71
     3
 72
    41
 73
    37
 74
     0
 42
0.0000000001
 43
0.0000000001
 40
0.0
 40
0.0
 40
0.0
 40
0.0
 40
0.0833333333333333
 40
0.0833333333333333
 40
0.0833333333333333
 40
0.1666666666666667
 40
0.1666666666666667
 40
0.1666666666666667
 40
0.25
 40
0.25
 40
0.25
 40
0.3333333333333333
 40
0.3333333333333333
 40
0.3333333333333333
 40
0.4166666666666666
 40
0.4166666666666666
 40
0.4166666666666666
 40
0.5
 40
0.5
 40
0.5
 40
0.5833333333333333
 40
0.5833333333333333
 40
0.5833333333333333
 40
0.6666666666666666
 40
0.6666666666666666
 40
0.6666666666666666
 40
0.75
 40
0.75
 40
0.75
 40
0.8333333333333333
 40
0.8333333333333333
 40
0.8333333333333333
 40
0.9166666666666666
 40
0.9166666666666666
 40
0.9166666666666666
 40
1.0
 40
1.0
 40
1.0
 40
1.0
 10
32.51289
 20
-50.07174
 30
0.0
 10
32.51289
 20
-50.07174
 30
0.0
 10
32.51289
 20
-35.37174
 30
0.0
 10
32.51289
 20
-35.37174
 30
0.0
 10
32.51289
 20
-35.37174
 30
0.0
 10
20.51289
 20
-35.37174
 30
0.0
 10
20.51289
 20
-35.37174
 30
0.0
 10
20.51289
 20
-35.37174
 30
0.0
 10
20.51289
 20
-50.07174
 30
0.0
 10
20.51289
 20
-50.07174
 30
0.0
 10
20.51289
 20
-50.07174
 30
0.0
 10
21.51289
 20
-50.07174
 30
0.0
 10
21.51289
 20
-50.07174
 30
0.0
 10
21.51289
 20
-50.07174
 30
0.0
 10
21.51289
 20
-50.37174
 30
0.0
 10
21.51289
 20
-50.37174
 30
0.0
 10
21.51289
 20
-50.37174
 30
0.0
 10
26.01289
 20
-50.37174
 30
0.0
 10
26.01289
 20
-50.37174
 30
0.0
 10
26.01289
 20
-50.37174
 30
0.0
 10
26.01289
 20
-50.07174
 30
0.0
 10
26.01289
 20
-50.07174
 30
0.0
 10
26.01289
 20
-50.07174
 30
0.0
 10
27.01289
 20
-50.07174
 30
0.0
 10
27.01289
 20
-50.07174
 30
0.0
 10
27.01289
 20
-50.07174
 30
0.0
 10
27.01289
 20
-50.37174
 30
0.0
 10
27.01289
 20
-50.37174
 30
0.0
 10
27.01289
 20
-50.37174
 30
0.0
 10
31.51289
 20
-50.37174
 30
0.0
 10
31.51289
 20
-50.37174
 30
0.0
 10
31.51289
 20
-50.37174
 30
0.0
 10
31.51289
 20
-50.07174
 30
0.0
 10
31.51289
 20
-50.07174
 30
0.0
 10
31.51289
 20
-50.07174
 30
0.0
 10
32.51289
 20
-50.07174
 30
0.0
 10
32.51289
 20
-50.07174
 30
0.0
  0
SPLINE
  5
8C
330
1F
100
AcDbEntity
  8
layer 1
 62
   250
370
    20
100
AcDbSpline
210
0.0
220
0.0
230
1.0
 70
    11
 71
     3
 72
    47
 73
    43
 74
     0
 42
0.0000000001
 43
0.0000000001
 40
0.0
 40
0.0
 40
0.0
 40
0.0
 40
0.0714285714285714
 40
0.0714285714285714
 40
0.0714285714285714
 40
0.1428571428571428
 40
0.1428571428571428
 40
0.1428571428571428
 40
0.2142857142857143
 40
0.2142857142857143
 40
0.2142857142857143
 40
0.2857142857142857
 40
0.2857142857142857
 40
0.2857142857142857
 40
0.3571428571428571
 40
0.3571428571428571
 40
0.3571428571428571
 40
0.4285714285714285
 40
0.4285714285714285
 40
0.4285714285714285
 40
0.5
 40
0.5
 40
0.5
 40
0.5714285714285714
 40
0.5714285714285714
 40
0.5714285714285714
 40
0.6428571428571428
 40
0.6428571428571428
 40
0.6428571428571428
 40
0.7142857142857142
 40
0.7142857142857142
 40
0.7142857142857142
 40
0.7857142857142857
 40
0.7857142857142857
 40
0.7857142857142857
 40
0.8571428571428571
 40
0.8571428571428571
 40
0.8571428571428571
 40
0.9285714285714285
 40
0.9285714285714285
 40
0.9285714285714285
 40
1.0
 40
1.0
 40
1.0
 40
1.0
 10
32.51289
 20
-65.67174
 30
0.0
 10
32.51289
 20
-65.67174
 30
0.0
 10
32.51289
 20
-50.67174
 30
0.0
 10
32.51289
 20
-50.67174
 30
0.0
 10
32.51289
 20
-50.67174
 30
0.0
 10
32.51289
 20
-50.37174
 30
0.0
 10
32.51289
 20
-50.37174
 30
0.0
 10
32.51289
 20
-50.37174
 30
0.0
 10
31.51289
 20
-50.37174
 30
0.0
 10
31.51289
 20
-50.37174
 30
0.0
 10
31.51289
 20
-50.37174
 30
0.0
 10
31.51289
 20
-50.67174
 30
0.0
 10
31.51289
 20
-50.67174
 30
0.0
 10
31.51289
 20
-50.67174
 30
0.0
 10
27.01289
 20
-50.67174
 30
0.0
 10
27.01289
 20
-50.67174
 30
0.0
 10
27.01289
 20
-50.67174
 30
0.0
 10
27.01289
 20
-50.37174
 30
0.0
 10
27.01289
 20
-50.37174
 30
0.0
 10
27.01289
 20
-50.37174
 30
0.0
 10
26.01289
 20
-50.37174
 30
0.0
 10
26.01289
 20
-50.37174
 30
0.0
 10
26.01289
 20
-50.37174
 30
0.0
 10
26.01289
 20
-50.67174
 30
0.0
 10
26.01289
 20
-50.67174
 30
0.0
 10
26.01289
 20
-50.67174
 30
0.0
 10
21.51289
 20
-50.67174
 30
0.0
 10
21.51289
 20
-50.67174
 30
0.0
 10
21.51289
 20
-50.67174
 30
0.0
 10
21.51289
 20
-50.37174
 30
0.0
 10
21.51289
 20
-50.37174
 30
0.0
 10
21.51289
 20
-50.37174
 30
0.0
 10
20.51289
 20
-50.37174
 30
0.0
 10
20.51289
 20
-50.37174
 30
0.0
 10
20.51289
 20
-50.37174
 30
0.0
 10
20.51289
 20
-50.67174
 30
0.0
 10
20.51289
 20
-50.67174
 30
0.0
 10
20.51289
 20
-50.67174
 30
0.0
 10
20.51289
 20
-65.67174
 30
0.0
 10
20.51289
 20
-65.67174
 30
0.0
 10
20.51289
 20
-65.67174
 30
0.0
 10
32.51289
 20
-65.67174
 30
0.0
 10
32.51289
 20
-65.67174
 30
0.0
  0
SPLINE
  5
8D
330
1F
100
AcDbEntity
  8
layer 1
 62
   250
370
    20
100
AcDbSpline
210
0.0
220
0.0
230
1.0
 70
    11
 71
     3
 72
    17
 73
    13
 74
     0
 42
0.0000000001
 43
0.0000000001
 40
0.0
 40
0.0
 40
0.0
 40
0.0
 40
0.25
 40
0.25
 40
0.25
 40
0.5
 40
0.5
 40
0.5
 40
0.75
 40
0.75
 40
0.75
 40
1.0
 40
1.0
 40
1.0
 40
1.0
 10
26.3512
 20
-51.98511
 30
0.0
 10
26.3512
 20
-51.98511
 30
0.0
 10
26.6512
 20
-51.98511
 30
0.0
 10
26.6512
 20
-51.98511
 30
0.0
 10
26.6512
 20
-51.98511
 30
0.0
 10
26.6512
 20
-51.18511
 30
0.0
 10
26.6512
 20
-51.18511
 30
0.0
 10
26.6512
 20
-51.18511
 30
0.0
 10
26.3512
 20
-51.18511
 30
0.0
 10
26.3512
 20
-51.18511
 30
0.0
 10
26.3512
 20
-51.18511
 30
0.0
 10
26.3512
 20
-51.98511
 30
0.0
 10
26.3512
 20
-51.98511
 30
0.0
  0
ENDSEC
  0
SECTION
  2
OBJECTS
  0
DICTIONARY
  5
C
330
0
100
AcDbDictionary
281
     1
  3
ACAD_DETAILVIEWSTYLE
350
C9
  3
ACAD_GROUP
350
D
  3
ACAD_LAYOUT
350
1A
  3
ACAD_MATERIAL
350
43
  3
ACAD_MLEADERSTYLE
350
6B
  3
ACAD_MLINESTYLE
350
17
  3
ACAD_PLOTSETTINGS
350
19
  3
ACAD_PLOTSTYLENAME
350
E
  3
ACAD_SCALELIST
350
47
  3
ACAD_SECTIONVIEWSTYLE
350
CA
  3
ACAD_TABLESTYLE
350
69
  3
ACAD_VISUALSTYLE
350
2A
  3
ACDB_RECOMPOSE_DATA
350
C6
  3
AcDbVariableDictionary
350
8E
  0
SUN
  5
6D
330
29
100
AcDbSun
 90
        1
290
     0
 63
     7
421
 16777215
 40
1.0
291
     1
 91
  2455826
 92
 54000000
292
     0
 70
     2
 71
   256
280
     1
  0
DICTIONARY
  5
C9
102
{ACAD_REACTORS
330
C
102
}
330
C
100
AcDbDictionary
281
     1
  0
DICTIONARY
  5
D
102
{ACAD_REACTORS
330
C
102
}
330
C
100
AcDbDictionary
281
     1
  0
DICTIONARY
  5
1A
102
{ACAD_REACTORS
330
C
102
}
330
C
100
AcDbDictionary
281
     1
  3
Layout1
350
1E
  3
Layout2
350
26
  3
Model
350
22
  0
DICTIONARY
  5
43
102
{ACAD_REACTORS
330
C
102
}
330
C
100
AcDbDictionary
281
     1
  3
ByBlock
350
45
  3
ByLayer
350
44
  3
Global
350
46
  0
DICTIONARY
  5
6B
102
{ACAD_REACTORS
330
C
102
}
330
C
100
AcDbDictionary
281
     1
  3
Standard
350
6C
  0
DICTIONARY
  5
17
102
{ACAD_REACTORS
330
C
102
}
330
C
100
AcDbDictionary
281
     1
  3
Standard
350
18
  0
DICTIONARY
  5
19
102
{ACAD_REACTORS
330
C
102
}
330
C
100
AcDbDictionary
281
     1
  0
ACDBDICTIONARYWDFLT
  5
E
102
{ACAD_REACTORS
330
C
102
}
330
C
100
AcDbDictionary
281
     1
  3
Normal
350
F
100
AcDbDictionaryWithDefault
340
F
  0
DICTIONARY
  5
47
102
{ACAD_REACTORS
330
C
102
}
330
C
100
AcDbDictionary
281
     1
  3
A0
350
48
  3
A1
350
49
  3
A2
350
4A
  3
A3
350
4B
  3
A4
350
4C
  3
A5
350
4D
  3
A6
350
4E
  3
A7
350
4F
  3
A8
350
50
  3
A9
350
51
  3
B0
350
52
  3
B1
350
53
  3
B2
350
54
  3
B3
350
55
  3
B4
350
56
  3
B5
350
57
  3
B6
350
58
  3
B7
350
59
  3
B8
350
5A
  3
B9
350
5B
  3
C0
350
5C
  3
C1
350
5D
  3
C2
350
5E
  3
C3
350
5F
  3
C4
350
60
  3
C5
350
61
  3
C6
350
62
  3
C7
350
63
  3
C8
350
64
  3
C9
350
65
  3
D0
350
66
  3
D1
350
67
  3
D2
350
68
  0
DICTIONARY
  5
CA
102
{ACAD_REACTORS
330
C
102
}
330
C
100
AcDbDictionary
281
     1
  0
DICTIONARY
  5
69
102
{ACAD_REACTORS
330
C
102
}
330
C
100
AcDbDictionary
281
     1
  3
Standard
350
6A
  0
DICTIONARY
  5
2A
102
{ACAD_REACTORS
330
C
102
}
330
C
100
AcDbDictionary
281
     1
  3
2dWireframe
350
2F
  3
Basic
350
32
  3
Brighten
350
36
  3
ColorChange
350
3A
  3
Conceptual
350
34
  3
Dim
350
35
  3
EdgeColorOff
350
3D
  3
Facepattern
350
39
  3
Flat
350
2B
  3
FlatWithEdges
350
2C
  3
Gouraud
350
2D
  3
GouraudWithEdges
350
2E
  3
Hidden
350
31
  3
JitterOff
350
3B
  3
Linepattern
350
38
  3
OverhangOff
350
3C
  3
Realistic
350
33
  3
Shaded
350
42
  3
Shaded with edges
350
41
  3
Shades of Gray
350
3E
  3
Sketchy
350
3F
  3
Thicken
350
37
  3
Wireframe
350
30
  3
X-Ray
350
40
  0
XRECORD
  5
C6
102
{ACAD_REACTORS
330
C
102
}
330
C
100
AcDbXrecord
280
     1
 90
        1
330
6A
  0
DICTIONARY
  5
8E
102
{ACAD_REACTORS
330
C
102
}
330
C
100
AcDbDictionary
281
     1
  3
CANNOSCALE
350
8F
  3
CMLEADERSTYLE
350
C8
  3
CTABLESTYLE
350
C7
  3
XCLIPFRAME
350
90
  0
LAYOUT
  5
1E
102
{ACAD_REACTORS
330
1A
102
}
330
1A
100
AcDbPlotSettings
  1

  2
none_device
  4

  6

 40
0.0
 41
0.0
 42
0.0
 43
0.0
 44
0.0
 45
0.0
 46
0.0
 47
0.0
 48
0.0
 49
0.0
140
0.0
141
0.0
142
1.0
143
1.0
 70
   688
 72
     0
 73
     0
 74
     5
  7

 75
    16
 76
     0
 77
     2
 78
   300
147
1.0
148
0.0
149
0.0
100
AcDbLayout
  1
Layout1
 70
     1
 71
     1
 10
0.0
 20
0.0
 11
12.0
 21
9.0
 12
0.0
 22
0.0
 32
0.0
 14
1.000000000000000E+20
 24
1.000000000000000E+20
 34
1.000000000000000E+20
 15
-1.000000000000000E+20
 25
-1.000000000000000E+20
 35
-1.000000000000000E+20
146
0.0
 13
0.0
 23
0.0
 33
0.0
 16
1.0
 26
0.0
 36
0.0
 17
0.0
 27
1.0
 37
0.0
 76
     0
330
1B
  0
LAYOUT
  5
26
102
{ACAD_REACTORS
330
1A
102
}
330
1A
100
AcDbPlotSettings
  1

  2
none_device
  4

  6

 40
0.0
 41
0.0
 42
0.0
 43
0.0
 44
0.0
 45
0.0
 46
0.0
 47
0.0
 48
0.0
 49
0.0
140
0.0
141
0.0
142
1.0
143
1.0
 70
   688
 72
     0
 73
     0
 74
     5
  7

 75
    16
 76
     0
 77
     2
 78
   300
147
1.0
148
0.0
149
0.0
100
AcDbLayout
  1
Layout2
 70
     1
 71
     2
 10
0.0
 20
0.0
 11
0.0
 21
0.0
 12
0.0
 22
0.0
 32
0.0
 14
0.0
 24
0.0
 34
0.0
 15
0.0
 25
0.0
 35
0.0
146
0.0
 13
0.0
 23
0.0
 33
0.0
 16
1.0
 26
0.0
 36
0.0
 17
0.0
 27
1.0
 37
0.0
 76
     0
330
23
  0
LAYOUT
  5
22
102
{ACAD_REACTORS
330
1A
102
}
330
1A
100
AcDbPlotSettings
  1

  2
none_device
  4
Letter_(8.50_x_11.00_Inches)
  6

 40
6.35
 41
6.35
 42
6.35000508
 43
6.35000508
 44
215.9
 45
279.4
 46
0.0
 47
0.0
 48
0.0
 49
0.0
140
0.0
141
0.0
142
1.0
143
1.0
 70
  1712
 72
     0
 73
     0
 74
     0
  7

 75
     0
 76
     0
 77
     2
 78
   300
147
1.0
148
0.0
149
0.0
100
AcDbLayout
  1
Model
 70
     1
 71
     0
 10
0.0
 20
0.0
 11
12.0
 21
9.0
 12
0.0
 22
0.0
 32
0.0
 14
-42.99711
 24
-65.68174
 34
0.0
 15
32.52289
 25
-20.90003
 35
0.0
146
0.0
 13
0.0
 23
0.0
 33
0.0
 16
1.0
 26
0.0
 36
0.0
 17
0.0
 27
1.0
 37
0.0
 76
     0
330
1F
331
29
  0
MATERIAL
  5
45
102
{ACAD_REACTORS
330
43
102
}
330
43
100
AcDbMaterial
  1
ByBlock
 72
     1
 94
      127
  0
MATERIAL
  5
44
102
{ACAD_REACTORS
330
43
102
}
330
43
100
AcDbMaterial
  1
ByLayer
 72
     1
 94
      127
  0
MATERIAL
  5
46
102
{ACAD_REACTORS
330
43
102
}
330
43
100
AcDbMaterial
  1
Global
 72
     1
 94
      127
  0
MLEADERSTYLE
  5
6C
102
{ACAD_REACTORS
330
6B
102
}
102
{ACAD_XDICTIONARY
360
C4
102
}
330
6B
100
AcDbMLeaderStyle
170
     2
171
     1
172
     0
 90
        2
 40
0.0
 41
0.0
173
     1
 91
-1056964608
340
14
 92
       -2
290
     1
 42
0.09
291
     1
 43
0.36
  3
Standard
341
0
 44
0.18
300

342
11
174
     1
178
     6
175
     1
176
     0
 93
-1056964608
 45
0.18
292
     0
297
     0
 46
0.18
343
0
 94
-1056964608
 47
1.0
 49
1.0
140
1.0
293
     1
141
0.0
294
     1
177
     0
142
1.0
295
     0
296
     0
143
0.125
1001
ACAD_MLEADERVER
1070
     2
  0
MLINESTYLE
  5
18
102
{ACAD_REACTORS
330
17
102
}
330
17
100
AcDbMlineStyle
  2
Standard
 70
     0
  3

 62
   256
 51
90.0
 52
90.0
 71
     2
 49
0.5
 62
   256
  6
BYLAYER
 49
-0.5
 62
   256
  6
BYLAYER
  0
ACDBPLACEHOLDER
  5
F
102
{ACAD_REACTORS
330
E
102
}
330
E
  0
SCALE
  5
48
102
{ACAD_REACTORS
330
47
102
}
330
47
100
AcDbScale
 70
     0
300
1:1
140
1.0
141
1.0
290
     1
  0
SCALE
  5
49
102
{ACAD_REACTORS
330
47
102
}
330
47
100
AcDbScale
 70
     0
300
1:2
140
1.0
141
2.0
290
     0
  0
SCALE
  5
4A
102
{ACAD_REACTORS
330
47
102
}
330
47
100
AcDbScale
 70
     0
300
1:4
140
1.0
141
4.0
290
     0
  0
SCALE
  5
4B
102
{ACAD_REACTORS
330
47
102
}
330
47
100
AcDbScale
 70
     0
300
1:5
140
1.0
141
5.0
290
     0
  0
SCALE
  5
4C
102
{ACAD_REACTORS
330
47
102
}
330
47
100
AcDbScale
 70
     0
300
1:8
140
1.0
141
8.0
290
     0
  0
SCALE
  5
4D
102
{ACAD_REACTORS
330
47
102
}
330
47
100
AcDbScale
 70
     0
300
1:10
140
1.0
141
10.0
290
     0
  0
SCALE
  5
4E
102
{ACAD_REACTORS
330
47
102
}
330
47
100
AcDbScale
 70
     0
300
1:16
140
1.0
141
16.0
290
     0
  0
SCALE
  5
4F
102
{ACAD_REACTORS
330
47
102
}
330
47
100
AcDbScale
 70
     0
300
1:20
140
1.0
141
20.0
290
     0
  0
SCALE
  5
50
102
{ACAD_REACTORS
330
47
102
}
330
47
100
AcDbScale
 70
     0
300
1:30
140
1.0
141
30.0
290
     0
  0
SCALE
  5
51
102
{ACAD_REACTORS
330
47
102
}
330
47
100
AcDbScale
 70
     0
300
1:40
140
1.0
141
40.0
290
     0
  0
SCALE
  5
52
102
{ACAD_REACTORS
330
47
102
}
330
47
100
AcDbScale
 70
     0
300
1:50
140
1.0
141
50.0
290
     0
  0
SCALE
  5
53
102
{ACAD_REACTORS
330
47
102
}
330
47
100
AcDbScale
 70
     0
300
1:100
140
1.0
141
100.0
290
     0
  0
SCALE
  5
54
102
{ACAD_REACTORS
330
47
102
}
330
47
100
AcDbScale
 70
     0
300
2:1
140
2.0
141
1.0
290
     0
  0
SCALE
  5
55
102
{ACAD_REACTORS
330
47
102
}
330
47
100
AcDbScale
 70
     0
300
4:1
140
4.0
141
1.0
290
     0
  0
SCALE
  5
56
102
{ACAD_REACTORS
330
47
102
}
330
47
100
AcDbScale
 70
     0
300
8:1
140
8.0
141
1.0
290
     0
  0
SCALE
  5
57
102
{ACAD_REACTORS
330
47
102
}
330
47
100
AcDbScale
 70
     0
300
10:1
140
10.0
141
1.0
290
     0
  0
SCALE
  5
58
102
{ACAD_REACTORS
330
47
102
}
330
47
100
AcDbScale
 70
     0
300
100:1
140
100.0
141
1.0
290
     0
  0
SCALE
  5
59
102
{ACAD_REACTORS
330
47
102
}
330
47
100
AcDbScale
 70
     0
300
1/128" = 1'-0"
140
0.0078125
141
12.0
290
     0
  0
SCALE
  5
5A
102
{ACAD_REACTORS
330
47
102
}
330
47
100
AcDbScale
 70
     0
300
1/64" = 1'-0"
140
0.015625
141
12.0
290
     0
  0
SCALE
  5
5B
102
{ACAD_REACTORS
330
47
102
}
330
47
100
AcDbScale
 70
     0
300
1/32" = 1'-0"
140
0.03125
141
12.0
290
     0
  0
SCALE
  5
5C
102
{ACAD_REACTORS
330
47
102
}
330
47
100
AcDbScale
 70
     0
300
1/16" = 1'-0"
140
0.0625
141
12.0
290
     0
  0
SCALE
  5
5D
102
{ACAD_REACTORS
330
47
102
}
330
47
100
AcDbScale
 70
     0
300
3/32" = 1'-0"
140
0.09375
141
12.0
290
     0
  0
SCALE
  5
5E
102
{ACAD_REACTORS
330
47
102
}
330
47
100
AcDbScale
 70
     0
300
1/8" = 1'-0"
140
0.125
141
12.0
290
     0
  0
SCALE
  5
5F
102
{ACAD_REACTORS
330
47
102
}
330
47
100
AcDbScale
 70
     0
300
3/16" = 1'-0"
140
0.1875
141
12.0
290
     0
  0
SCALE
  5
60
102
{ACAD_REACTORS
330
47
102
}
330
47
100
AcDbScale
 70
     0
300
1/4" = 1'-0"
140
0.25
141
12.0
290
     0
  0
SCALE
  5
61
102
{ACAD_REACTORS
330
47
102
}
330
47
100
AcDbScale
 70
     0
300
3/8" = 1'-0"
140
0.375
141
12.0
290
     0
  0
SCALE
  5
62
102
{ACAD_REACTORS
330
47
102
}
330
47
100
AcDbScale
 70
     0
300
1/2" = 1'-0"
140
0.5
141
12.0
290
     0
  0
SCALE
  5
63
102
{ACAD_REACTORS
330
47
102
}
330
47
100
AcDbScale
 70
     0
300
3/4" = 1'-0"
140
0.75
141
12.0
290
     0
  0
SCALE
  5
64
102
{ACAD_REACTORS
330
47
102
}
330
47
100
AcDbScale
 70
     0
300
1" = 1'-0"
140
1.0
141
12.0
290
     0
  0
SCALE
  5
65
102
{ACAD_REACTORS
330
47
102
}
330
47
100
AcDbScale
 70
     0
300
1-1/2" = 1'-0"
140
1.5
141
12.0
290
     0
  0
SCALE
  5
66
102
{ACAD_REACTORS
330
47
102
}
330
47
100
AcDbScale
 70
     0
300
3" = 1'-0"
140
3.0
141
12.0
290
     0
  0
SCALE
  5
67
102
{ACAD_REACTORS
330
47
102
}
330
47
100
AcDbScale
 70
     0
300
6" = 1'-0"
140
6.0
141
12.0
290
     0
  0
SCALE
  5
68
102
{ACAD_REACTORS
330
47
102
}
330
47
100
AcDbScale
 70
     0
300
1'-0" = 1'-0"
140
12.0
141
12.0
290
     0
  0
TABLESTYLE
  5
6A
102
{ACAD_REACTORS
330
69
102
}
102
{ACAD_XDICTIONARY
360
C1
102
}
330
69
100
AcDbTableStyle
  3
Standard
 70
     0
 71
     0
 40
0.06
 41
0.06
280
     0
281
     0
  7
Standard
140
0.18
170
     2
 62
     0
 63
   257
283
     0
 90
        4
 91
        0
  1

274
    -2
284
     1
 64
     0
275
    -2
285
     1
 65
     0
276
    -2
286
     1
 66
     0
277
    -2
287
     1
 67
     0
278
    -2
288
     1
 68
     0
279
    -2
289
     1
 69
     0
  7
Standard
140
0.25
170
     5
 62
     0
 63
   257
283
     0
 90
        4
 91
        0
  1

274
    -2
284
     1
 64
     0
275
    -2
285
     1
 65
     0
276
    -2
286
     1
 66
     0
277
    -2
287
     1
 67
     0
278
    -2
288
     1
 68
     0
279
    -2
289
     1
 69
     0
  7
Standard
140
0.18
170
     5
 62
     0
 63
   257
283
     0
 90
        4
 91
        0
  1

274
    -2
284
     1
 64
     0
275
    -2
285
     1
 65
     0
276
    -2
286
     1
 66
     0
277
    -2
287
     1
 67
     0
278
    -2
288
     1
 68
     0
279
    -2
289
     1
 69
     0
  0
VISUALSTYLE
  5
2F
102
{ACAD_REACTORS
330
2A
102
}
102
{ACAD_XDICTIONARY
360
99
102
}
330
2A
100
AcDbVisualStyle
  2
2dWireframe
 70
     4
 71
     0
 72
     2
 73
     0
 90
        0
 40
0.6
 41
30.0
 62
     5
 63
     7
421
 16777215
 74
     1
 91
        4
 64
     7
 65
   257
 75
     1
175
     1
 42
1.0
 92
        0
 66
   257
 43
1.0
 76
     1
 77
     6
 78
     2
 67
     7
 79
     5
170
     0
171
     0
290
     0
174
     0
 93
        1
 44
0.0
173
     0
291
     0
 45
0.0
  0
VISUALSTYLE
  5
32
102
{ACAD_REACTORS
330
2A
102
}
102
{ACAD_XDICTIONARY
360
9F
102
}
330
2A
100
AcDbVisualStyle
  2
Basic
 70
     7
 71
     1
 72
     0
 73
     1
 90
        0
 40
0.6
 41
30.0
 62
     5
 63
     7
421
 16777215
 74
     0
 91
        4
 64
     7
 65
   257
 75
     1
175
     1
 42
1.0
 92
        8
 66
     7
 43
1.0
 76
     1
 77
     6
 78
     2
 67
     7
 79
     5
170
     0
171
     0
290
     0
174
     0
 93
        1
 44
0.0
173
     0
291
     1
 45
0.0
  0
VISUALSTYLE
  5
36
102
{ACAD_REACTORS
330
2A
102
}
102
{ACAD_XDICTIONARY
360
A7
102
}
330
2A
100
AcDbVisualStyle
  2
Brighten
 70
    12
 71
     2
 72
     2
 73
     0
 90
        0
 40
0.6
 41
30.0
 62
     5
 63
     7
421
 16777215
 74
     1
 91
        4
 64
     7
 65
   257
 75
     1
175
     1
 42
1.0
 92
        8
 66
     7
 43
1.0
 76
     1
 77
     6
 78
     2
 67
     7
 79
     5
170
     0
171
     0
290
     0
174
     0
 93
        1
 44
50.0
173
     0
291
     1
 45
0.0
  0
VISUALSTYLE
  5
3A
102
{ACAD_REACTORS
330
2A
102
}
102
{ACAD_XDICTIONARY
360
AF
102
}
330
2A
100
AcDbVisualStyle
  2
ColorChange
 70
    16
 71
     2
 72
     2
 73
     3
 90
        0
 40
0.6
 41
30.0
 62
     5
 63
     8
421
  8421504
 74
     1
 91
        4
 64
     7
 65
   257
 75
     1
175
     1
 42
1.0
 92
        8
 66
     8
424
  8421504
 43
1.0
 76
     1
 77
     6
 78
     2
 67
     7
 79
     5
170
     0
171
     0
290
     0
174
     0
 93
        1
 44
0.0
173
     0
291
     1
 45
0.0
  0
VISUALSTYLE
  5
34
102
{ACAD_REACTORS
330
2A
102
}
102
{ACAD_XDICTIONARY
360
A3
102
}
330
2A
100
AcDbVisualStyle
  2
Conceptual
 70
     9
 71
     3
 72
     2
 73
     0
 90
        0
 40
0.6
 41
30.0
 62
     5
 63
     7
421
 16777215
 74
     2
 91
        2
 64
     7
 65
   257
 75
     1
175
     1
 42
179.0
 92
        8
 66
     7
 43
1.0
 76
     1
 77
     6
 78
     2
 67
     7
 79
     3
170
     0
171
     0
290
     0
174
     0
 93
        1
 44
0.0
173
     0
291
     0
 45
0.0
  0
VISUALSTYLE
  5
35
102
{ACAD_REACTORS
330
2A
102
}
102
{ACAD_XDICTIONARY
360
A5
102
}
330
2A
100
AcDbVisualStyle
  2
Dim
 70
    11
 71
     2
 72
     2
 73
     0
 90
        0
 40
0.6
 41
30.0
 62
     5
 63
     7
421
 16777215
 74
     1
 91
        4
 64
     7
 65
   257
 75
     1
175
     1
 42
1.0
 92
        8
 66
     7
 43
1.0
 76
     1
 77
     6
 78
     2
 67
     7
 79
     5
170
     0
171
     0
290
     0
174
     0
 93
        1
 44
-50.0
173
     0
291
     1
 45
0.0
  0
VISUALSTYLE
  5
3D
102
{ACAD_REACTORS
330
2A
102
}
102
{ACAD_XDICTIONARY
360
B5
102
}
330
2A
100
AcDbVisualStyle
  2
EdgeColorOff
 70
    22
 71
     2
 72
     2
 73
     0
 90
        0
 40
0.6
 41
30.0
 62
     5
 63
     7
421
 16777215
 74
     1
 91
        4
 64
     7
 65
   257
 75
     1
175
     1
 42
1.0
 92
        8
 66
     7
 43
1.0
 76
     1
 77
     6
 78
     2
 67
     7
 79
     5
170
     0
171
     0
290
     0
174
     0
 93
        1
 44
0.0
173
     0
291
     1
 45
0.0
  0
VISUALSTYLE
  5
39
102
{ACAD_REACTORS
330
2A
102
}
102
{ACAD_XDICTIONARY
360
AD
102
}
330
2A
100
AcDbVisualStyle
  2
Facepattern
 70
    15
 71
     2
 72
     2
 73
     0
 90
        0
 40
0.6
 41
30.0
 62
     5
 63
     7
421
 16777215
 74
     1
 91
        4
 64
     7
 65
   257
 75
     1
175
     1
 42
1.0
 92
        8
 66
     7
 43
1.0
 76
     1
 77
     6
 78
     2
 67
     7
 79
     5
170
     0
171
     0
290
     0
174
     0
 93
        1
 44
0.0
173
     0
291
     1
 45
0.0
  0
VISUALSTYLE
  5
2B
102
{ACAD_REACTORS
330
2A
102
}
102
{ACAD_XDICTIONARY
360
91
102
}
330
2A
100
AcDbVisualStyle
  2
Flat
 70
     0
 71
     2
 72
     1
 73
     1
 90
        2
 40
0.6
 41
30.0
 62
     5
 63
     7
421
 16777215
 74
     0
 91
        0
 64
     7
 65
   257
 75
     1
175
     1
 42
1.0
 92
        8
 66
     7
 43
1.0
 76
     1
 77
     6
 78
     2
 67
     7
 79
     5
170
     0
171
     0
290
     0
174
     0
 93
       13
 44
0.0
173
     0
291
     1
 45
0.0
  0
VISUALSTYLE
  5
2C
102
{ACAD_REACTORS
330
2A
102
}
102
{ACAD_XDICTIONARY
360
93
102
}
330
2A
100
AcDbVisualStyle
  2
FlatWithEdges
 70
     1
 71
     2
 72
     1
 73
     1
 90
        2
 40
0.6
 41
30.0
 62
     5
 63
     7
421
 16777215
 74
     1
 91
        0
 64
     7
 65
   257
 75
     1
175
     1
 42
1.0
 92
        0
 66
   257
 43
1.0
 76
     1
 77
     6
 78
     2
 67
     7
 79
     5
170
     0
171
     0
290
     0
174
     0
 93
       13
 44
0.0
173
     0
291
     1
 45
0.0
  0
VISUALSTYLE
  5
2D
102
{ACAD_REACTORS
330
2A
102
}
102
{ACAD_XDICTIONARY
360
95
102
}
330
2A
100
AcDbVisualStyle
  2
Gouraud
 70
     2
 71
     2
 72
     2
 73
     1
 90
        2
 40
0.6
 41
30.0
 62
     5
 63
     7
421
 16777215
 74
     0
 91
        0
 64
     7
 65
   257
 75
     1
175
     1
 42
1.0
 92
        0
 66
     7
 43
1.0
 76
     1
 77
     6
 78
     2
 67
     7
 79
     5
170
     0
171
     0
290
     0
174
     0
 93
       13
 44
0.0
173
     0
291
     1
 45
0.0
  0
VISUALSTYLE
  5
2E
102
{ACAD_REACTORS
330
2A
102
}
102
{ACAD_XDICTIONARY
360
97
102
}
330
2A
100
AcDbVisualStyle
  2
GouraudWithEdges
 70
     3
 71
     2
 72
     2
 73
     1
 90
        2
 40
0.6
 41
30.0
 62
     5
 63
     7
421
 16777215
 74
     1
 91
        0
 64
     7
 65
   257
 75
     1
175
     1
 42
1.0
 92
        0
 66
   257
 43
1.0
 76
     1
 77
     6
 78
     2
 67
     7
 79
     5
170
     0
171
     0
290
     0
174
     0
 93
       13
 44
0.0
173
     0
291
     1
 45
0.0
  0
VISUALSTYLE
  5
31
102
{ACAD_REACTORS
330
2A
102
}
102
{ACAD_XDICTIONARY
360
9D
102
}
330
2A
100
AcDbVisualStyle
  2
Hidden
 70
     6
 71
     1
 72
     2
 73
     2
 90
        0
 40
0.6
 41
30.0
 62
     5
 63
     7
421
 16777215
 74
     2
 91
        2
 64
     7
 65
   257
 75
     2
175
     1
 42
40.0
 92
        0
 66
   257
 43
1.0
 76
     1
 77
     6
 78
     2
 67
     7
 79
     3
170
     0
171
     0
290
     0
174
     0
 93
        1
 44
0.0
173
     0
291
     0
 45
0.0
  0
VISUALSTYLE
  5
3B
102
{ACAD_REACTORS
330
2A
102
}
102
{ACAD_XDICTIONARY
360
B1
102
}
330
2A
100
AcDbVisualStyle
  2
JitterOff
 70
    20
 71
     2
 72
     2
 73
     0
 90
        0
 40
0.6
 41
30.0
 62
     5
 63
     7
421
 16777215
 74
     1
 91
        4
 64
     7
 65
   257
 75
     1
175
     1
 42
1.0
 92
       10
 66
     7
 43
1.0
 76
     1
 77
     6
 78
     2
 67
     7
 79
     5
170
     0
171
     0
290
     0
174
     0
 93
        1
 44
0.0
173
     0
291
     1
 45
0.0
  0
VISUALSTYLE
  5
38
102
{ACAD_REACTORS
330
2A
102
}
102
{ACAD_XDICTIONARY
360
AB
102
}
330
2A
100
AcDbVisualStyle
  2
Linepattern
 70
    14
 71
     2
 72
     2
 73
     0
 90
        0
 40
0.6
 41
30.0
 62
     5
 63
     7
421
 16777215
 74
     1
 91
        4
 64
     7
 65
   257
 75
     7
175
     7
 42
1.0
 92
        8
 66
     7
 43
1.0
 76
     1
 77
     6
 78
     2
 67
     7
 79
     5
170
     0
171
     0
290
     0
174
     0
 93
        1
 44
0.0
173
     0
291
     1
 45
0.0
  0
VISUALSTYLE
  5
3C
102
{ACAD_REACTORS
330
2A
102
}
102
{ACAD_XDICTIONARY
360
B3
102
}
330
2A
100
AcDbVisualStyle
  2
OverhangOff
 70
    21
 71
     2
 72
     2
 73
     0
 90
        0
 40
0.6
 41
30.0
 62
     5
 63
     7
421
 16777215
 74
     1
 91
        4
 64
     7
 65
   257
 75
     1
175
     1
 42
1.0
 92
        9
 66
     7
 43
1.0
 76
     1
 77
     6
 78
     2
 67
     7
 79
     5
170
     0
171
     0
290
     0
174
     0
 93
        1
 44
0.0
173
     0
291
     1
 45
0.0
  0
VISUALSTYLE
  5
33
102
{ACAD_REACTORS
330
2A
102
}
102
{ACAD_XDICTIONARY
360
A1
102
}
330
2A
100
AcDbVisualStyle
  2
Realistic
 70
     8
 71
     2
 72
     3
 73
     0
 90
        2
 40
0.6
 41
30.0
 62
     5
 63
     7
421
 16777215
 74
     0
 91
        0
 64
     7
 65
   257
 75
     1
175
     1
 42
1.0
 92
        8
 66
   257
 43
1.0
 76
     1
 77
     6
 78
     2
 67
     7
 79
     3
170
     0
171
     0
290
     0
174
     0
 93
       13
 44
0.0
173
     0
291
     0
 45
0.0
  0
VISUALSTYLE
  5
42
102
{ACAD_REACTORS
330
2A
102
}
102
{ACAD_XDICTIONARY
360
BF
102
}
330
2A
100
AcDbVisualStyle
  2
Shaded
 70
    27
 71
     2
 72
     2
 73
     1
 90
        2
 40
0.6
 41
30.0
 62
     5
 63
     7
421
 16777215
 74
     0
 91
        4
 64
     7
 65
   257
 75
     1
175
     1
 42
1.0
 92
        8
 66
   257
 43
1.0
 76
     1
 77
     6
 78
     2
 67
     8
425
  7895160
 79
     3
170
     0
171
     0
290
     0
174
     0
 93
        5
 44
0.0
173
     0
291
     0
 45
0.0
  0
VISUALSTYLE
  5
41
102
{ACAD_REACTORS
330
2A
102
}
102
{ACAD_XDICTIONARY
360
BD
102
}
330
2A
100
AcDbVisualStyle
  2
Shaded with edges
 70
    26
 71
     2
 72
     2
 73
     1
 90
        2
 40
0.6
 41
30.0
 62
     5
 63
     7
421
 16777215
 74
     1
 91
       10
 64
     7
 65
   257
 75
     2
175
     1
 42
1.0
 92
        8
 66
   257
 43
1.0
 76
     1
 77
     6
 78
     2
 67
     7
 79
     3
170
     0
171
     0
290
     0
174
     0
 93
        5
 44
0.0
173
     0
291
     0
 45
0.0
  0
VISUALSTYLE
  5
3E
102
{ACAD_REACTORS
330
2A
102
}
102
{ACAD_XDICTIONARY
360
B7
102
}
330
2A
100
AcDbVisualStyle
  2
Shades of Gray
 70
    23
 71
     2
 72
     2
 73
     3
 90
        0
 40
0.6
 41
30.0
 62
     5
 63
     7
421
 16777215
 74
     2
 91
        2
 64
     7
 65
     7
 75
     1
175
     1
 42
40.0
 92
        8
 66
     7
 43
1.0
 76
     1
 77
     6
 78
     2
 67
     7
 79
     3
170
     0
171
     0
290
     0
174
     0
 93
        1
 44
0.0
173
     0
291
     0
 45
0.0
  0
VISUALSTYLE
  5
3F
102
{ACAD_REACTORS
330
2A
102
}
102
{ACAD_XDICTIONARY
360
B9
102
}
330
2A
100
AcDbVisualStyle
  2
Sketchy
 70
    24
 71
     1
 72
     2
 73
     2
 90
        0
 40
0.6
 41
30.0
 62
     5
 63
     7
421
 16777215
 74
     2
 91
        2
 64
     7
 65
     7
 75
     1
175
     1
 42
40.0
 92
       11
 66
     7
 43
1.0
 76
     1
 77
     6
 78
     2
 67
     7
 79
     6
170
     0
171
     0
290
     0
174
     0
 93
        1
 44
0.0
173
     0
291
     0
 45
0.0
  0
VISUALSTYLE
  5
37
102
{ACAD_REACTORS
330
2A
102
}
102
{ACAD_XDICTIONARY
360
A9
102
}
330
2A
100
AcDbVisualStyle
  2
Thicken
 70
    13
 71
     2
 72
     2
 73
     0
 90
        0
 40
0.6
 41
30.0
 62
     5
 63
     7
421
 16777215
 74
     1
 91
        4
 64
     7
 65
   257
 75
     1
175
     1
 42
1.0
 92
       12
 66
     7
 43
1.0
 76
     1
 77
     6
 78
     2
 67
     7
 79
     5
170
     0
171
     0
290
     0
174
     0
 93
        1
 44
0.0
173
     0
291
     1
 45
0.0
  0
VISUALSTYLE
  5
30
102
{ACAD_REACTORS
330
2A
102
}
102
{ACAD_XDICTIONARY
360
9B
102
}
330
2A
100
AcDbVisualStyle
  2
Wireframe
 70
     5
 71
     0
 72
     2
 73
     0
 90
        0
 40
0.6
 41
30.0
 62
     5
 63
     7
421
 16777215
 74
     1
 91
        4
 64
     7
 65
   257
 75
     1
175
     1
 42
1.0
 92
        0
 66
   257
 43
1.0
 76
     1
 77
     6
 78
     2
 67
     7
 79
     3
170
     0
171
     0
290
     0
174
     0
 93
        1
 44
0.0
173
     0
291
     0
 45
0.0
  0
VISUALSTYLE
  5
40
102
{ACAD_REACTORS
330
2A
102
}
102
{ACAD_XDICTIONARY
360
BB
102
}
330
2A
100
AcDbVisualStyle
  2
X-Ray
 70
    25
 71
     2
 72
     2
 73
     1
 90
        1
 40
0.5
 41
30.0
 62
     5
 63
     7
421
 16777215
 74
     1
 91
        0
 64
     7
 65
   257
 75
     1
175
     1
 42
1.0
 92
        8
 66
     7
 43
1.0
 76
     1
 77
     6
 78
     2
 67
     7
 79
     3
170
     0
171
     0
290
     0
174
     0
 93
       13
 44
0.0
173
     0
291
     0
 45
0.0
  0
DICTIONARYVAR
  5
8F
102
{ACAD_REACTORS
330
8E
102
}
330
8E
100
DictionaryVariables
280
     0
  1
1:1
  0
DICTIONARYVAR
  5
C8
102
{ACAD_REACTORS
330
8E
102
}
330
8E
100
DictionaryVariables
280
     0
  1
Standard
  0
DICTIONARYVAR
  5
C7
102
{ACAD_REACTORS
330
8E
102
}
330
8E
100
DictionaryVariables
280
     0
  1
Standard
  0
DICTIONARYVAR
  5
90
102
{ACAD_REACTORS
330
8E
102
}
330
8E
100
DictionaryVariables
280
     0
  1
2
  0
DICTIONARY
  5
C4
330
6C
100
AcDbDictionary
280
     1
281
     1
  3
ACAD_XREC_ROUNDTRIP
360
C5
  0
DICTIONARY
  5
C1
330
6A
100
AcDbDictionary
280
     1
281
     1
  3
ACAD_ROUNDTRIP_2008_TABLESTYLE_CELLSTYLEMAP
360
C2
  0
DICTIONARY
  5
99
330
2F
100
AcDbDictionary
280
     1
281
     1
  3
ACAD_XREC_ROUNDTRIP
360
9A
  0
DICTIONARY
  5
9F
330
32
100
AcDbDictionary
280
     1
281
     1
  3
ACAD_XREC_ROUNDTRIP
360
A0
  0
DICTIONARY
  5
A7
330
36
100
AcDbDictionary
280
     1
281
     1
  3
ACAD_XREC_ROUNDTRIP
360
A8
  0
DICTIONARY
  5
AF
330
3A
100
AcDbDictionary
280
     1
281
     1
  3
ACAD_XREC_ROUNDTRIP
360
B0
  0
DICTIONARY
  5
A3
330
34
100
AcDbDictionary
280
     1
281
     1
  3
ACAD_XREC_ROUNDTRIP
360
A4
  0
DICTIONARY
  5
A5
330
35
100
AcDbDictionary
280
     1
281
     1
  3
ACAD_XREC_ROUNDTRIP
360
A6
  0
DICTIONARY
  5
B5
330
3D
100
AcDbDictionary
280
     1
281
     1
  3
ACAD_XREC_ROUNDTRIP
360
B6
  0
DICTIONARY
  5
AD
330
39
100
AcDbDictionary
280
     1
281
     1
  3
ACAD_XREC_ROUNDTRIP
360
AE
  0
DICTIONARY
  5
91
330
2B
100
AcDbDictionary
280
     1
281
     1
  3
ACAD_XREC_ROUNDTRIP
360
92
  0
DICTIONARY
  5
93
330
2C
100
AcDbDictionary
280
     1
281
     1
  3
ACAD_XREC_ROUNDTRIP
360
94
  0
DICTIONARY
  5
95
330
2D
100
AcDbDictionary
280
     1
281
     1
  3
ACAD_XREC_ROUNDTRIP
360
96
  0
DICTIONARY
  5
97
330
2E
100
AcDbDictionary
280
     1
281
     1
  3
ACAD_XREC_ROUNDTRIP
360
98
  0
DICTIONARY
  5
9D
330
31
100
AcDbDictionary
280
     1
281
     1
  3
ACAD_XREC_ROUNDTRIP
360
9E
  0
DICTIONARY
  5
B1
330
3B
100
AcDbDictionary
280
     1
281
     1
  3
ACAD_XREC_ROUNDTRIP
360
B2
  0
DICTIONARY
  5
AB
330
38
100
AcDbDictionary
280
     1
281
     1
  3
ACAD_XREC_ROUNDTRIP
360
AC
  0
DICTIONARY
  5
B3
330
3C
100
AcDbDictionary
280
     1
281
     1
  3
ACAD_XREC_ROUNDTRIP
360
B4
  0
DICTIONARY
  5
A1
330
33
100
AcDbDictionary
280
     1
281
     1
  3
ACAD_XREC_ROUNDTRIP
360
A2
  0
DICTIONARY
  5
BF
330
42
100
AcDbDictionary
280
     1
281
     1
  3
ACAD_XREC_ROUNDTRIP
360
C0
  0
DICTIONARY
  5
BD
330
41
100
AcDbDictionary
280
     1
281
     1
  3
ACAD_XREC_ROUNDTRIP
360
BE
  0
DICTIONARY
  5
B7
330
3E
100
AcDbDictionary
280
     1
281
     1
  3
ACAD_XREC_ROUNDTRIP
360
B8
  0
DICTIONARY
  5
B9
330
3F
100
AcDbDictionary
280
     1
281
     1
  3
ACAD_XREC_ROUNDTRIP
360
BA
  0
DICTIONARY
  5
A9
330
37
100
AcDbDictionary
280
     1
281
     1
  3
ACAD_XREC_ROUNDTRIP
360
AA
  0
DICTIONARY
  5
9B
330
30
100
AcDbDictionary
280
     1
281
     1
  3
ACAD_XREC_ROUNDTRIP
360
9C
  0
DICTIONARY
  5
BB
330
40
100
AcDbDictionary
280
     1
281
     1
  3
ACAD_XREC_ROUNDTRIP
360
BC
  0
XRECORD
  5
C5
102
{ACAD_REACTORS
330
C4
102
}
330
C4
100
AcDbXrecord
280
     1
102
ACAD_ROUNDTRIP_2010_MLEADER_STYLE
  0
CELLSTYLEMAP
  5
C2
102
{ACAD_REACTORS
330
C1
102
}
330
C1
100
AcDbCellStyleMap
 90
        3
300
CELLSTYLE
  1
TABLEFORMAT_BEGIN
 90
        5
170
     1
 91
        0
 92
    32768
 62
   257
 93
        1
300
CONTENTFORMAT
  1
CONTENTFORMAT_BEGIN
 90
        0
 91
        0
 92
        4
 93
        0
300

 40
0.0
140
1.0
 94
        5
 62
     0
340
11
144
0.25
309
CONTENTFORMAT_END
171
     1
301
MARGIN
  1
CELLMARGIN_BEGIN
 40
0.06
 40
0.06
 40
0.06
 40
0.06
 40
0.06
 40
0.06
309
CELLMARGIN_END
 94
        6
 95
        1
302
GRIDFORMAT
  1
GRIDFORMAT_BEGIN
 90
        0
 91
        1
 62
     0
 92
       -2
340
14
 93
        0
 40
0.045
309
GRIDFORMAT_END
 95
        2
302
GRIDFORMAT
  1
GRIDFORMAT_BEGIN
 90
        0
 91
        1
 62
     0
 92
       -2
340
14
 93
        0
 40
0.045
309
GRIDFORMAT_END
 95
        4
302
GRIDFORMAT
  1
GRIDFORMAT_BEGIN
 90
        0
 91
        1
 62
     0
 92
       -2
340
14
 93
        0
 40
0.045
309
GRIDFORMAT_END
 95
        8
302
GRIDFORMAT
  1
GRIDFORMAT_BEGIN
 90
        0
 91
        1
 62
     0
 92
       -2
340
14
 93
        0
 40
0.045
309
GRIDFORMAT_END
 95
       16
302
GRIDFORMAT
  1
GRIDFORMAT_BEGIN
 90
        0
 91
        1
 62
     0
 92
       -2
340
14
 93
        0
 40
0.045
309
GRIDFORMAT_END
 95
       32
302
GRIDFORMAT
  1
GRIDFORMAT_BEGIN
 90
        0
 91
        1
 62
     0
 92
       -2
340
14
 93
        0
 40
0.045
309
GRIDFORMAT_END
309
TABLEFORMAT_END
  1
CELLSTYLE_BEGIN
 90
        1
 91
        1
300
_TITLE
309
CELLSTYLE_END
300
CELLSTYLE
  1
TABLEFORMAT_BEGIN
 90
        5
170
     1
 91
        0
 92
        0
 62
   257
 93
        1
300
CONTENTFORMAT
  1
CONTENTFORMAT_BEGIN
 90
        0
 91
        0
 92
        4
 93
        0
300

 40
0.0
140
1.0
 94
        5
 62
     0
340
11
144
0.18
309
CONTENTFORMAT_END
171
     1
301
MARGIN
  1
CELLMARGIN_BEGIN
 40
0.06
 40
0.06
 40
0.06
 40
0.06
 40
0.06
 40
0.06
309
CELLMARGIN_END
 94
        6
 95
        1
302
GRIDFORMAT
  1
GRIDFORMAT_BEGIN
 90
        0
 91
        1
 62
     0
 92
       -2
340
14
 93
        0
 40
0.045
309
GRIDFORMAT_END
 95
        2
302
GRIDFORMAT
  1
GRIDFORMAT_BEGIN
 90
        0
 91
        1
 62
     0
 92
       -2
340
14
 93
        0
 40
0.045
309
GRIDFORMAT_END
 95
        4
302
GRIDFORMAT
  1
GRIDFORMAT_BEGIN
 90
        0
 91
        1
 62
     0
 92
       -2
340
14
 93
        0
 40
0.045
309
GRIDFORMAT_END
 95
        8
302
GRIDFORMAT
  1
GRIDFORMAT_BEGIN
 90
        0
 91
        1
 62
     0
 92
       -2
340
14
 93
        0
 40
0.045
309
GRIDFORMAT_END
 95
       16
302
GRIDFORMAT
  1
GRIDFORMAT_BEGIN
 90
        0
 91
        1
 62
     0
 92
       -2
340
14
 93
        0
 40
0.045
309
GRIDFORMAT_END
 95
       32
302
GRIDFORMAT
  1
GRIDFORMAT_BEGIN
 90
        0
 91
        1
 62
     0
 92
       -2
340
14
 93
        0
 40
0.045
309
GRIDFORMAT_END
309
TABLEFORMAT_END
  1
CELLSTYLE_BEGIN
 90
        2
 91
        1
300
_HEADER
309
CELLSTYLE_END
300
CELLSTYLE
  1
TABLEFORMAT_BEGIN
 90
        5
170
     1
 91
        0
 92
        0
 62
   257
 93
        1
300
CONTENTFORMAT
  1
CONTENTFORMAT_BEGIN
 90
        0
 91
        0
 92
        4
 93
        0
300

 40
0.0
140
1.0
 94
        2
 62
     0
340
11
144
0.18
309
CONTENTFORMAT_END
171
     1
301
MARGIN
  1
CELLMARGIN_BEGIN
 40
0.06
 40
0.06
 40
0.06
 40
0.06
 40
0.06
 40
0.06
309
CELLMARGIN_END
 94
        6
 95
        1
302
GRIDFORMAT
  1
GRIDFORMAT_BEGIN
 90
        0
 91
        1
 62
     0
 92
       -2
340
14
 93
        0
 40
0.045
309
GRIDFORMAT_END
 95
        2
302
GRIDFORMAT
  1
GRIDFORMAT_BEGIN
 90
        0
 91
        1
 62
     0
 92
       -2
340
14
 93
        0
 40
0.045
309
GRIDFORMAT_END
 95
        4
302
GRIDFORMAT
  1
GRIDFORMAT_BEGIN
 90
        0
 91
        1
 62
     0
 92
       -2
340
14
 93
        0
 40
0.045
309
GRIDFORMAT_END
 95
        8
302
GRIDFORMAT
  1
GRIDFORMAT_BEGIN
 90
        0
 91
        1
 62
     0
 92
       -2
340
14
 93
        0
 40
0.045
309
GRIDFORMAT_END
 95
       16
302
GRIDFORMAT
  1
GRIDFORMAT_BEGIN
 90
        0
 91
        1
 62
     0
 92
       -2
340
14
 93
        0
 40
0.045
309
GRIDFORMAT_END
 95
       32
302
GRIDFORMAT
  1
GRIDFORMAT_BEGIN
 90
        0
 91
        1
 62
     0
 92
       -2
340
14
 93
        0
 40
0.045
309
GRIDFORMAT_END
309
TABLEFORMAT_END
  1
CELLSTYLE_BEGIN
 90
        3
 91
        2
300
_DATA
309
CELLSTYLE_END
  0
XRECORD
  5
9A
102
{ACAD_REACTORS
330
99
102
}
330
99
100
AcDbXrecord
280
     1
102
RTVSPropertyOp0
 70
     1
102
RTVSPropertyOp1
 70
     1
102
RTVSPropertyOp2
 70
     1
102
RTVSPropertyOp3
 70
     1
102
RTVSPropertyOp4
 70
     1
102
RTVSPropertyOp5
 70
     1
102
RTVSPropertyOp6
 70
     1
102
RTVSPropertyOp7
 70
     1
102
RTVSPropertyOp8
 70
     1
102
RTVSPropertyOp9
 70
     1
102
RTVSPropertyOp10
 70
     1
102
RTVSPropertyOp11
 70
     1
102
RTVSPropertyOp12
 70
     1
102
RTVSPropertyOp13
 70
     1
102
RTVSPropertyOp14
 70
     1
102
RTVSPropertyOp15
 70
     1
102
RTVSPropertyOp16
 70
     1
102
RTVSPropertyOp17
 70
     1
102
RTVSPropertyOp18
 70
     1
102
RTVSPropertyOp19
 70
     1
102
RTVSPropertyOp20
 70
     1
102
RTVSPropertyOp21
 70
     1
102
RTVSPropertyOp22
 70
     1
102
RTVSPropertyOp23
 70
     1
102
RTVSPropertyOp24
 70
     1
102
RTVSPropertyOp25
 70
     1
102
RTVSPropertyOp26
 70
     1
102
RTVSPropertyOp27
 70
     1
102
RTVSPropertyOp28
 70
     1
102
RTVSPropertyOp29
 70
     1
102
RTVSPropertyOp30
 70
     1
102
RTVSPropertyOp31
 70
     1
102
RTVSPropertyOp32
 70
     1
102
RTVSPropertyOp33
 70
     1
102
RTVSPropertyOp34
 70
     1
102
RTVSPropertyOp35
 70
     1
102
RTVSPropertyOp36
 70
     1
102
RTVSPropertyOp37
 70
     1
102
RTVSPropertyOp38
 70
     1
102
RTVSPropertyOp39
 70
     1
102
RTVSPropertyOp40
 70
     1
102
RTVSPropertyOp41
 70
     1
102
RTVSPropertyOp42
 70
     1
102
RTVSPropertyOp43
 70
     1
102
RTVSPropertyOp44
 70
     1
102
RTVSPropertyOp45
 70
     1
102
RTVSPropertyOp46
 70
     1
102
RTVSPropertyOp47
 70
     1
102
RTVSPropertyOp48
 70
     1
102
RTVSPropertyOp49
 70
     1
102
RTVSPropertyOp50
 70
     1
102
RTVSPropertyOp51
 70
     0
102
RTVSPropertyOp52
 70
     0
102
RTVSPropertyOp53
 70
     1
102
RTVSPropertyOp54
 70
     1
102
RTVSPropertyOp55
 70
     1
102
RTVSPropertyOp56
 70
     1
102
RTVSPropertyOp57
 70
     1
102
RTVSPost2010Prop28
280
     1
102
RTVSPost2010PropOp28
 70
     1
102
RTVSPost2010Prop29
280
     1
102
RTVSPost2010PropOp29
 70
     1
102
RTVSPost2010Prop30
280
     0
102
RTVSPost2010PropOp30
 70
     1
102
RTVSPost2010Prop31
280
     0
102
RTVSPost2010PropOp31
 70
     1
102
RTVSPost2010Prop32
280
     0
102
RTVSPost2010PropOp32
 70
     1
102
RTVSPost2010Prop33
280
     0
102
RTVSPost2010PropOp33
 70
     1
102
RTVSPost2010Prop34
280
     0
102
RTVSPost2010PropOp34
 70
     1
102
RTVSPost2010Prop35
280
     0
102
RTVSPost2010PropOp35
 70
     1
102
RTVSPost2010Prop36
280
     0
102
RTVSPost2010PropOp36
 70
     1
102
RTVSPost2010Prop37
 90
       50
102
RTVSPost2010PropOp37
 70
     1
102
RTVSPost2010Prop38
140
0.0
102
RTVSPost2010PropOp38
 70
     1
102
RTVSPost2010Prop39
140
1.0
102
RTVSPost2010PropOp39
 70
     1
102
RTVSPost2010Prop40
 90
        0
102
RTVSPost2010PropOp40
 70
     1
102
RTVSPost2010Prop41ColorIndex
 90
       18
102
RTVSPost2010Prop41ColorRGB
 90
        0
102
RTVSPost2010PropOp41
 70
     1
102
RTVSPost2010Prop42
 90
       50
102
RTVSPost2010PropOp42
 70
     1
102
RTVSPost2010Prop43
 90
        3
102
RTVSPost2010PropOp43
 70
     1
102
RTVSPost2010Prop44ColorIndex
 90
        5
102
RTVSPost2010Prop44ColorRGB
 90
      255
102
RTVSPost2010PropOp44
 70
     1
102
RTVSPost2010Prop45
280
     0
102
RTVSPost2010PropOp45
 70
     1
102
RTVSPost2010Prop46
 90
       50
102
RTVSPost2010PropOp46
 70
     1
102
RTVSPost2010Prop47
 90
       50
102
RTVSPost2010PropOp47
 70
     1
102
RTVSPost2010Prop48
 90
       50
102
RTVSPost2010PropOp48
 70
     1
102
RTVSPost2010Prop49
280
     0
102
RTVSPost2010PropOp49
 70
     1
102
RTVSPost2010Prop50
 90
       50
102
RTVSPost2010PropOp50
 70
     1
102
RTVSPost2010Prop51ColorIndex
 90
      256
102
RTVSPost2010Prop51ColorRGB
 90
-16777216
102
RTVSPost2010PropOp51
 70
     0
102
RTVSPost2010Prop52
140
1.0
102
RTVSPost2010PropOp52
 70
     0
102
RTVSPost2010Prop53
 90
        2
102
RTVSPost2010PropOp53
 70
     1
102
RTVSPost2010Prop54
  1
strokes_ogs.tif
102
RTVSPost2010PropOp54
 70
     1
102
RTVSPost2010Prop55
280
     0
102
RTVSPost2010PropOp55
 70
     1
102
RTVSPost2010Prop56
140
1.0
102
RTVSPost2010PropOp56
 70
     1
102
RTVSPost2010Prop57
140
1.0
102
RTVSPost2010PropOp57
 70
     1
  0
XRECORD
  5
A0
102
{ACAD_REACTORS
330
9F
102
}
330
9F
100
AcDbXrecord
280
     1
102
RTVSPropertyOp0
 70
     1
102
RTVSPropertyOp1
 70
     1
102
RTVSPropertyOp2
 70
     1
102
RTVSPropertyOp3
 70
     1
102
RTVSPropertyOp4
 70
     1
102
RTVSPropertyOp5
 70
     1
102
RTVSPropertyOp6
 70
     1
102
RTVSPropertyOp7
 70
     1
102
RTVSPropertyOp8
 70
     1
102
RTVSPropertyOp9
 70
     1
102
RTVSPropertyOp10
 70
     1
102
RTVSPropertyOp11
 70
     1
102
RTVSPropertyOp12
 70
     1
102
RTVSPropertyOp13
 70
     1
102
RTVSPropertyOp14
 70
     1
102
RTVSPropertyOp15
 70
     1
102
RTVSPropertyOp16
 70
     1
102
RTVSPropertyOp17
 70
     1
102
RTVSPropertyOp18
 70
     1
102
RTVSPropertyOp19
 70
     1
102
RTVSPropertyOp20
 70
     1
102
RTVSPropertyOp21
 70
     1
102
RTVSPropertyOp22
 70
     1
102
RTVSPropertyOp23
 70
     1
102
RTVSPropertyOp24
 70
     1
102
RTVSPropertyOp25
 70
     1
102
RTVSPropertyOp26
 70
     1
102
RTVSPropertyOp27
 70
     1
102
RTVSPropertyOp28
 70
     1
102
RTVSPropertyOp29
 70
     1
102
RTVSPropertyOp30
 70
     1
102
RTVSPropertyOp31
 70
     1
102
RTVSPropertyOp32
 70
     1
102
RTVSPropertyOp33
 70
     1
102
RTVSPropertyOp34
 70
     1
102
RTVSPropertyOp35
 70
     1
102
RTVSPropertyOp36
 70
     1
102
RTVSPropertyOp37
 70
     1
102
RTVSPropertyOp38
 70
     1
102
RTVSPropertyOp39
 70
     1
102
RTVSPropertyOp40
 70
     1
102
RTVSPropertyOp41
 70
     1
102
RTVSPropertyOp42
 70
     1
102
RTVSPropertyOp43
 70
     1
102
RTVSPropertyOp44
 70
     1
102
RTVSPropertyOp45
 70
     1
102
RTVSPropertyOp46
 70
     1
102
RTVSPropertyOp47
 70
     1
102
RTVSPropertyOp48
 70
     1
102
RTVSPropertyOp49
 70
     1
102
RTVSPropertyOp50
 70
     1
102
RTVSPropertyOp51
 70
     0
102
RTVSPropertyOp52
 70
     0
102
RTVSPropertyOp53
 70
     1
102
RTVSPropertyOp54
 70
     1
102
RTVSPropertyOp55
 70
     1
102
RTVSPropertyOp56
 70
     1
102
RTVSPropertyOp57
 70
     1
102
RTVSPost2010Prop28
280
     0
102
RTVSPost2010PropOp28
 70
     1
102
RTVSPost2010Prop29
280
     1
102
RTVSPost2010PropOp29
 70
     1
102
RTVSPost2010Prop30
280
     1
102
RTVSPost2010PropOp30
 70
     1
102
RTVSPost2010Prop31
280
     0
102
RTVSPost2010PropOp31
 70
     1
102
RTVSPost2010Prop32
280
     0
102
RTVSPost2010PropOp32
 70
     1
102
RTVSPost2010Prop33
280
     0
102
RTVSPost2010PropOp33
 70
     1
102
RTVSPost2010Prop34
280
     0
102
RTVSPost2010PropOp34
 70
     1
102
RTVSPost2010Prop35
280
     0
102
RTVSPost2010PropOp35
 70
     1
102
RTVSPost2010Prop36
280
     0
102
RTVSPost2010PropOp36
 70
     1
102
RTVSPost2010Prop37
 90
       50
102
RTVSPost2010PropOp37
 70
     1
102
RTVSPost2010Prop38
140
0.0
102
RTVSPost2010PropOp38
 70
     1
102
RTVSPost2010Prop39
140
1.0
102
RTVSPost2010PropOp39
 70
     1
102
RTVSPost2010Prop40
 90
        0
102
RTVSPost2010PropOp40
 70
     1
102
RTVSPost2010Prop41ColorIndex
 90
       18
102
RTVSPost2010Prop41ColorRGB
 90
        0
102
RTVSPost2010PropOp41
 70
     1
102
RTVSPost2010Prop42
 90
       50
102
RTVSPost2010PropOp42
 70
     1
102
RTVSPost2010Prop43
 90
        3
102
RTVSPost2010PropOp43
 70
     1
102
RTVSPost2010Prop44ColorIndex
 90
        5
102
RTVSPost2010Prop44ColorRGB
 90
      255
102
RTVSPost2010PropOp44
 70
     1
102
RTVSPost2010Prop45
280
     0
102
RTVSPost2010PropOp45
 70
     1
102
RTVSPost2010Prop46
 90
       50
102
RTVSPost2010PropOp46
 70
     1
102
RTVSPost2010Prop47
 90
       50
102
RTVSPost2010PropOp47
 70
     1
102
RTVSPost2010Prop48
 90
       50
102
RTVSPost2010PropOp48
 70
     1
102
RTVSPost2010Prop49
280
     0
102
RTVSPost2010PropOp49
 70
     1
102
RTVSPost2010Prop50
 90
       50
102
RTVSPost2010PropOp50
 70
     1
102
RTVSPost2010Prop51ColorIndex
 90
      256
102
RTVSPost2010Prop51ColorRGB
 90
-16777216
102
RTVSPost2010PropOp51
 70
     0
102
RTVSPost2010Prop52
140
1.0
102
RTVSPost2010PropOp52
 70
     0
102
RTVSPost2010Prop53
 90
        2
102
RTVSPost2010PropOp53
 70
     1
102
RTVSPost2010Prop54
  1
strokes_ogs.tif
102
RTVSPost2010PropOp54
 70
     1
102
RTVSPost2010Prop55
280
     0
102
RTVSPost2010PropOp55
 70
     1
102
RTVSPost2010Prop56
140
1.0
102
RTVSPost2010PropOp56
 70
     1
102
RTVSPost2010Prop57
140
1.0
102
RTVSPost2010PropOp57
 70
     1
  0
XRECORD
  5
A8
102
{ACAD_REACTORS
330
A7
102
}
330
A7
100
AcDbXrecord
280
     1
102
RTVSPropertyOp0
 70
     1
102
RTVSPropertyOp1
 70
     1
102
RTVSPropertyOp2
 70
     1
102
RTVSPropertyOp3
 70
     1
102
RTVSPropertyOp4
 70
     1
102
RTVSPropertyOp5
 70
     1
102
RTVSPropertyOp6
 70
     1
102
RTVSPropertyOp7
 70
     1
102
RTVSPropertyOp8
 70
     1
102
RTVSPropertyOp9
 70
     1
102
RTVSPropertyOp10
 70
     1
102
RTVSPropertyOp11
 70
     1
102
RTVSPropertyOp12
 70
     1
102
RTVSPropertyOp13
 70
     1
102
RTVSPropertyOp14
 70
     1
102
RTVSPropertyOp15
 70
     1
102
RTVSPropertyOp16
 70
     1
102
RTVSPropertyOp17
 70
     1
102
RTVSPropertyOp18
 70
     1
102
RTVSPropertyOp19
 70
     1
102
RTVSPropertyOp20
 70
     1
102
RTVSPropertyOp21
 70
     1
102
RTVSPropertyOp22
 70
     1
102
RTVSPropertyOp23
 70
     1
102
RTVSPropertyOp24
 70
     1
102
RTVSPropertyOp25
 70
     1
102
RTVSPropertyOp26
 70
     1
102
RTVSPropertyOp27
 70
     1
102
RTVSPropertyOp28
 70
     1
102
RTVSPropertyOp29
 70
     1
102
RTVSPropertyOp30
 70
     1
102
RTVSPropertyOp31
 70
     1
102
RTVSPropertyOp32
 70
     1
102
RTVSPropertyOp33
 70
     1
102
RTVSPropertyOp34
 70
     1
102
RTVSPropertyOp35
 70
     1
102
RTVSPropertyOp36
 70
     1
102
RTVSPropertyOp37
 70
     1
102
RTVSPropertyOp38
 70
     1
102
RTVSPropertyOp39
 70
     1
102
RTVSPropertyOp40
 70
     1
102
RTVSPropertyOp41
 70
     1
102
RTVSPropertyOp42
 70
     1
102
RTVSPropertyOp43
 70
     1
102
RTVSPropertyOp44
 70
     1
102
RTVSPropertyOp45
 70
     1
102
RTVSPropertyOp46
 70
     1
102
RTVSPropertyOp47
 70
     1
102
RTVSPropertyOp48
 70
     1
102
RTVSPropertyOp49
 70
     1
102
RTVSPropertyOp50
 70
     1
102
RTVSPropertyOp51
 70
     0
102
RTVSPropertyOp52
 70
     0
102
RTVSPropertyOp53
 70
     1
102
RTVSPropertyOp54
 70
     1
102
RTVSPropertyOp55
 70
     1
102
RTVSPropertyOp56
 70
     1
102
RTVSPropertyOp57
 70
     1
102
RTVSPost2010Prop28
280
     0
102
RTVSPost2010PropOp28
 70
     1
102
RTVSPost2010Prop29
280
     1
102
RTVSPost2010PropOp29
 70
     1
102
RTVSPost2010Prop30
280
     1
102
RTVSPost2010PropOp30
 70
     1
102
RTVSPost2010Prop31
280
     0
102
RTVSPost2010PropOp31
 70
     1
102
RTVSPost2010Prop32
280
     0
102
RTVSPost2010PropOp32
 70
     1
102
RTVSPost2010Prop33
280
     0
102
RTVSPost2010PropOp33
 70
     1
102
RTVSPost2010Prop34
280
     0
102
RTVSPost2010PropOp34
 70
     1
102
RTVSPost2010Prop35
280
     0
102
RTVSPost2010PropOp35
 70
     1
102
RTVSPost2010Prop36
280
     0
102
RTVSPost2010PropOp36
 70
     1
102
RTVSPost2010Prop37
 90
       50
102
RTVSPost2010PropOp37
 70
     1
102
RTVSPost2010Prop38
140
0.0
102
RTVSPost2010PropOp38
 70
     1
102
RTVSPost2010Prop39
140
1.0
102
RTVSPost2010PropOp39
 70
     1
102
RTVSPost2010Prop40
 90
        0
102
RTVSPost2010PropOp40
 70
     1
102
RTVSPost2010Prop41ColorIndex
 90
       18
102
RTVSPost2010Prop41ColorRGB
 90
        0
102
RTVSPost2010PropOp41
 70
     1
102
RTVSPost2010Prop42
 90
       50
102
RTVSPost2010PropOp42
 70
     1
102
RTVSPost2010Prop43
 90
        3
102
RTVSPost2010PropOp43
 70
     1
102
RTVSPost2010Prop44ColorIndex
 90
        5
102
RTVSPost2010Prop44ColorRGB
 90
      255
102
RTVSPost2010PropOp44
 70
     1
102
RTVSPost2010Prop45
280
     0
102
RTVSPost2010PropOp45
 70
     1
102
RTVSPost2010Prop46
 90
       50
102
RTVSPost2010PropOp46
 70
     1
102
RTVSPost2010Prop47
 90
       50
102
RTVSPost2010PropOp47
 70
     1
102
RTVSPost2010Prop48
 90
       50
102
RTVSPost2010PropOp48
 70
     1
102
RTVSPost2010Prop49
280
     0
102
RTVSPost2010PropOp49
 70
     1
102
RTVSPost2010Prop50
 90
       50
102
RTVSPost2010PropOp50
 70
     1
102
RTVSPost2010Prop51ColorIndex
 90
      256
102
RTVSPost2010Prop51ColorRGB
 90
-16777216
102
RTVSPost2010PropOp51
 70
     0
102
RTVSPost2010Prop52
140
1.0
102
RTVSPost2010PropOp52
 70
     0
102
RTVSPost2010Prop53
 90
        2
102
RTVSPost2010PropOp53
 70
     1
102
RTVSPost2010Prop54
  1
strokes_ogs.tif
102
RTVSPost2010PropOp54
 70
     1
102
RTVSPost2010Prop55
280
     0
102
RTVSPost2010PropOp55
 70
     1
102
RTVSPost2010Prop56
140
1.0
102
RTVSPost2010PropOp56
 70
     1
102
RTVSPost2010Prop57
140
1.0
102
RTVSPost2010PropOp57
 70
     1
  0
XRECORD
  5
B0
102
{ACAD_REACTORS
330
AF
102
}
330
AF
100
AcDbXrecord
280
     1
102
RTVSPropertyOp0
 70
     1
102
RTVSPropertyOp1
 70
     1
102
RTVSPropertyOp2
 70
     1
102
RTVSPropertyOp3
 70
     1
102
RTVSPropertyOp4
 70
     1
102
RTVSPropertyOp5
 70
     1
102
RTVSPropertyOp6
 70
     1
102
RTVSPropertyOp7
 70
     1
102
RTVSPropertyOp8
 70
     1
102
RTVSPropertyOp9
 70
     1
102
RTVSPropertyOp10
 70
     1
102
RTVSPropertyOp11
 70
     1
102
RTVSPropertyOp12
 70
     1
102
RTVSPropertyOp13
 70
     1
102
RTVSPropertyOp14
 70
     1
102
RTVSPropertyOp15
 70
     1
102
RTVSPropertyOp16
 70
     1
102
RTVSPropertyOp17
 70
     1
102
RTVSPropertyOp18
 70
     1
102
RTVSPropertyOp19
 70
     1
102
RTVSPropertyOp20
 70
     1
102
RTVSPropertyOp21
 70
     1
102
RTVSPropertyOp22
 70
     1
102
RTVSPropertyOp23
 70
     1
102
RTVSPropertyOp24
 70
     1
102
RTVSPropertyOp25
 70
     1
102
RTVSPropertyOp26
 70
     1
102
RTVSPropertyOp27
 70
     1
102
RTVSPropertyOp28
 70
     1
102
RTVSPropertyOp29
 70
     1
102
RTVSPropertyOp30
 70
     1
102
RTVSPropertyOp31
 70
     1
102
RTVSPropertyOp32
 70
     1
102
RTVSPropertyOp33
 70
     1
102
RTVSPropertyOp34
 70
     1
102
RTVSPropertyOp35
 70
     1
102
RTVSPropertyOp36
 70
     1
102
RTVSPropertyOp37
 70
     1
102
RTVSPropertyOp38
 70
     1
102
RTVSPropertyOp39
 70
     1
102
RTVSPropertyOp40
 70
     1
102
RTVSPropertyOp41
 70
     1
102
RTVSPropertyOp42
 70
     1
102
RTVSPropertyOp43
 70
     1
102
RTVSPropertyOp44
 70
     1
102
RTVSPropertyOp45
 70
     1
102
RTVSPropertyOp46
 70
     1
102
RTVSPropertyOp47
 70
     1
102
RTVSPropertyOp48
 70
     1
102
RTVSPropertyOp49
 70
     1
102
RTVSPropertyOp50
 70
     1
102
RTVSPropertyOp51
 70
     0
102
RTVSPropertyOp52
 70
     0
102
RTVSPropertyOp53
 70
     1
102
RTVSPropertyOp54
 70
     1
102
RTVSPropertyOp55
 70
     1
102
RTVSPropertyOp56
 70
     1
102
RTVSPropertyOp57
 70
     1
102
RTVSPost2010Prop28
280
     0
102
RTVSPost2010PropOp28
 70
     1
102
RTVSPost2010Prop29
280
     1
102
RTVSPost2010PropOp29
 70
     1
102
RTVSPost2010Prop30
280
     1
102
RTVSPost2010PropOp30
 70
     1
102
RTVSPost2010Prop31
280
     0
102
RTVSPost2010PropOp31
 70
     1
102
RTVSPost2010Prop32
280
     0
102
RTVSPost2010PropOp32
 70
     1
102
RTVSPost2010Prop33
280
     0
102
RTVSPost2010PropOp33
 70
     1
102
RTVSPost2010Prop34
280
     0
102
RTVSPost2010PropOp34
 70
     1
102
RTVSPost2010Prop35
280
     0
102
RTVSPost2010PropOp35
 70
     1
102
RTVSPost2010Prop36
280
     0
102
RTVSPost2010PropOp36
 70
     1
102
RTVSPost2010Prop37
 90
       50
102
RTVSPost2010PropOp37
 70
     1
102
RTVSPost2010Prop38
140
0.0
102
RTVSPost2010PropOp38
 70
     1
102
RTVSPost2010Prop39
140
1.0
102
RTVSPost2010PropOp39
 70
     1
102
RTVSPost2010Prop40
 90
        0
102
RTVSPost2010PropOp40
 70
     1
102
RTVSPost2010Prop41ColorIndex
 90
       18
102
RTVSPost2010Prop41ColorRGB
 90
        0
102
RTVSPost2010PropOp41
 70
     1
102
RTVSPost2010Prop42
 90
       50
102
RTVSPost2010PropOp42
 70
     1
102
RTVSPost2010Prop43
 90
        3
102
RTVSPost2010PropOp43
 70
     1
102
RTVSPost2010Prop44ColorIndex
 90
        5
102
RTVSPost2010Prop44ColorRGB
 90
      255
102
RTVSPost2010PropOp44
 70
     1
102
RTVSPost2010Prop45
280
     0
102
RTVSPost2010PropOp45
 70
     1
102
RTVSPost2010Prop46
 90
       50
102
RTVSPost2010PropOp46
 70
     1
102
RTVSPost2010Prop47
 90
       50
102
RTVSPost2010PropOp47
 70
     1
102
RTVSPost2010Prop48
 90
       50
102
RTVSPost2010PropOp48
 70
     1
102
RTVSPost2010Prop49
280
     0
102
RTVSPost2010PropOp49
 70
     1
102
RTVSPost2010Prop50
 90
       50
102
RTVSPost2010PropOp50
 70
     1
102
RTVSPost2010Prop51ColorIndex
 90
      256
102
RTVSPost2010Prop51ColorRGB
 90
-16777216
102
RTVSPost2010PropOp51
 70
     0
102
RTVSPost2010Prop52
140
1.0
102
RTVSPost2010PropOp52
 70
     0
102
RTVSPost2010Prop53
 90
        2
102
RTVSPost2010PropOp53
 70
     1
102
RTVSPost2010Prop54
  1
strokes_ogs.tif
102
RTVSPost2010PropOp54
 70
     1
102
RTVSPost2010Prop55
280
     0
102
RTVSPost2010PropOp55
 70
     1
102
RTVSPost2010Prop56
140
1.0
102
RTVSPost2010PropOp56
 70
     1
102
RTVSPost2010Prop57
140
1.0
102
RTVSPost2010PropOp57
 70
     1
  0
XRECORD
  5
A4
102
{ACAD_REACTORS
330
A3
102
}
330
A3
100
AcDbXrecord
280
     1
102
RTVSPropertyOp0
 70
     1
102
RTVSPropertyOp1
 70
     1
102
RTVSPropertyOp2
 70
     1
102
RTVSPropertyOp3
 70
     1
102
RTVSPropertyOp4
 70
     1
102
RTVSPropertyOp5
 70
     1
102
RTVSPropertyOp6
 70
     1
102
RTVSPropertyOp7
 70
     1
102
RTVSPropertyOp8
 70
     1
102
RTVSPropertyOp9
 70
     1
102
RTVSPropertyOp10
 70
     1
102
RTVSPropertyOp11
 70
     1
102
RTVSPropertyOp12
 70
     1
102
RTVSPropertyOp13
 70
     1
102
RTVSPropertyOp14
 70
     1
102
RTVSPropertyOp15
 70
     1
102
RTVSPropertyOp16
 70
     1
102
RTVSPropertyOp17
 70
     1
102
RTVSPropertyOp18
 70
     1
102
RTVSPropertyOp19
 70
     1
102
RTVSPropertyOp20
 70
     1
102
RTVSPropertyOp21
 70
     1
102
RTVSPropertyOp22
 70
     1
102
RTVSPropertyOp23
 70
     1
102
RTVSPropertyOp24
 70
     1
102
RTVSPropertyOp25
 70
     1
102
RTVSPropertyOp26
 70
     1
102
RTVSPropertyOp27
 70
     1
102
RTVSPropertyOp28
 70
     1
102
RTVSPropertyOp29
 70
     1
102
RTVSPropertyOp30
 70
     1
102
RTVSPropertyOp31
 70
     1
102
RTVSPropertyOp32
 70
     1
102
RTVSPropertyOp33
 70
     1
102
RTVSPropertyOp34
 70
     1
102
RTVSPropertyOp35
 70
     1
102
RTVSPropertyOp36
 70
     1
102
RTVSPropertyOp37
 70
     1
102
RTVSPropertyOp38
 70
     1
102
RTVSPropertyOp39
 70
     1
102
RTVSPropertyOp40
 70
     1
102
RTVSPropertyOp41
 70
     1
102
RTVSPropertyOp42
 70
     1
102
RTVSPropertyOp43
 70
     1
102
RTVSPropertyOp44
 70
     1
102
RTVSPropertyOp45
 70
     1
102
RTVSPropertyOp46
 70
     1
102
RTVSPropertyOp47
 70
     1
102
RTVSPropertyOp48
 70
     1
102
RTVSPropertyOp49
 70
     1
102
RTVSPropertyOp50
 70
     1
102
RTVSPropertyOp51
 70
     0
102
RTVSPropertyOp52
 70
     0
102
RTVSPropertyOp53
 70
     1
102
RTVSPropertyOp54
 70
     1
102
RTVSPropertyOp55
 70
     1
102
RTVSPropertyOp56
 70
     1
102
RTVSPropertyOp57
 70
     1
102
RTVSPost2010Prop28
280
     0
102
RTVSPost2010PropOp28
 70
     1
102
RTVSPost2010Prop29
280
     1
102
RTVSPost2010PropOp29
 70
     1
102
RTVSPost2010Prop30
280
     1
102
RTVSPost2010PropOp30
 70
     1
102
RTVSPost2010Prop31
280
     0
102
RTVSPost2010PropOp31
 70
     1
102
RTVSPost2010Prop32
280
     0
102
RTVSPost2010PropOp32
 70
     1
102
RTVSPost2010Prop33
280
     0
102
RTVSPost2010PropOp33
 70
     1
102
RTVSPost2010Prop34
280
     0
102
RTVSPost2010PropOp34
 70
     1
102
RTVSPost2010Prop35
280
     0
102
RTVSPost2010PropOp35
 70
     1
102
RTVSPost2010Prop36
280
     0
102
RTVSPost2010PropOp36
 70
     1
102
RTVSPost2010Prop37
 90
       50
102
RTVSPost2010PropOp37
 70
     1
102
RTVSPost2010Prop38
140
0.0
102
RTVSPost2010PropOp38
 70
     1
102
RTVSPost2010Prop39
140
1.0
102
RTVSPost2010PropOp39
 70
     1
102
RTVSPost2010Prop40
 90
        0
102
RTVSPost2010PropOp40
 70
     1
102
RTVSPost2010Prop41ColorIndex
 90
       18
102
RTVSPost2010Prop41ColorRGB
 90
        0
102
RTVSPost2010PropOp41
 70
     1
102
RTVSPost2010Prop42
 90
       50
102
RTVSPost2010PropOp42
 70
     1
102
RTVSPost2010Prop43
 90
        3
102
RTVSPost2010PropOp43
 70
     1
102
RTVSPost2010Prop44ColorIndex
 90
        5
102
RTVSPost2010Prop44ColorRGB
 90
      255
102
RTVSPost2010PropOp44
 70
     1
102
RTVSPost2010Prop45
280
     0
102
RTVSPost2010PropOp45
 70
     1
102
RTVSPost2010Prop46
 90
       50
102
RTVSPost2010PropOp46
 70
     1
102
RTVSPost2010Prop47
 90
       50
102
RTVSPost2010PropOp47
 70
     1
102
RTVSPost2010Prop48
 90
       50
102
RTVSPost2010PropOp48
 70
     1
102
RTVSPost2010Prop49
280
     0
102
RTVSPost2010PropOp49
 70
     1
102
RTVSPost2010Prop50
 90
       50
102
RTVSPost2010PropOp50
 70
     1
102
RTVSPost2010Prop51ColorIndex
 90
      256
102
RTVSPost2010Prop51ColorRGB
 90
-16777216
102
RTVSPost2010PropOp51
 70
     0
102
RTVSPost2010Prop52
140
1.0
102
RTVSPost2010PropOp52
 70
     0
102
RTVSPost2010Prop53
 90
        2
102
RTVSPost2010PropOp53
 70
     1
102
RTVSPost2010Prop54
  1
strokes_ogs.tif
102
RTVSPost2010PropOp54
 70
     1
102
RTVSPost2010Prop55
280
     0
102
RTVSPost2010PropOp55
 70
     1
102
RTVSPost2010Prop56
140
1.0
102
RTVSPost2010PropOp56
 70
     1
102
RTVSPost2010Prop57
140
1.0
102
RTVSPost2010PropOp57
 70
     1
  0
XRECORD
  5
A6
102
{ACAD_REACTORS
330
A5
102
}
330
A5
100
AcDbXrecord
280
     1
102
RTVSPropertyOp0
 70
     1
102
RTVSPropertyOp1
 70
     1
102
RTVSPropertyOp2
 70
     1
102
RTVSPropertyOp3
 70
     1
102
RTVSPropertyOp4
 70
     1
102
RTVSPropertyOp5
 70
     1
102
RTVSPropertyOp6
 70
     1
102
RTVSPropertyOp7
 70
     1
102
RTVSPropertyOp8
 70
     1
102
RTVSPropertyOp9
 70
     1
102
RTVSPropertyOp10
 70
     1
102
RTVSPropertyOp11
 70
     1
102
RTVSPropertyOp12
 70
     1
102
RTVSPropertyOp13
 70
     1
102
RTVSPropertyOp14
 70
     1
102
RTVSPropertyOp15
 70
     1
102
RTVSPropertyOp16
 70
     1
102
RTVSPropertyOp17
 70
     1
102
RTVSPropertyOp18
 70
     1
102
RTVSPropertyOp19
 70
     1
102
RTVSPropertyOp20
 70
     1
102
RTVSPropertyOp21
 70
     1
102
RTVSPropertyOp22
 70
     1
102
RTVSPropertyOp23
 70
     1
102
RTVSPropertyOp24
 70
     1
102
RTVSPropertyOp25
 70
     1
102
RTVSPropertyOp26
 70
     1
102
RTVSPropertyOp27
 70
     1
102
RTVSPropertyOp28
 70
     1
102
RTVSPropertyOp29
 70
     1
102
RTVSPropertyOp30
 70
     1
102
RTVSPropertyOp31
 70
     1
102
RTVSPropertyOp32
 70
     1
102
RTVSPropertyOp33
 70
     1
102
RTVSPropertyOp34
 70
     1
102
RTVSPropertyOp35
 70
     1
102
RTVSPropertyOp36
 70
     1
102
RTVSPropertyOp37
 70
     1
102
RTVSPropertyOp38
 70
     1
102
RTVSPropertyOp39
 70
     1
102
RTVSPropertyOp40
 70
     1
102
RTVSPropertyOp41
 70
     1
102
RTVSPropertyOp42
 70
     1
102
RTVSPropertyOp43
 70
     1
102
RTVSPropertyOp44
 70
     1
102
RTVSPropertyOp45
 70
     1
102
RTVSPropertyOp46
 70
     1
102
RTVSPropertyOp47
 70
     1
102
RTVSPropertyOp48
 70
     1
102
RTVSPropertyOp49
 70
     1
102
RTVSPropertyOp50
 70
     1
102
RTVSPropertyOp51
 70
     0
102
RTVSPropertyOp52
 70
     0
102
RTVSPropertyOp53
 70
     1
102
RTVSPropertyOp54
 70
     1
102
RTVSPropertyOp55
 70
     1
102
RTVSPropertyOp56
 70
     1
102
RTVSPropertyOp57
 70
     1
102
RTVSPost2010Prop28
280
     0
102
RTVSPost2010PropOp28
 70
     1
102
RTVSPost2010Prop29
280
     1
102
RTVSPost2010PropOp29
 70
     1
102
RTVSPost2010Prop30
280
     1
102
RTVSPost2010PropOp30
 70
     1
102
RTVSPost2010Prop31
280
     0
102
RTVSPost2010PropOp31
 70
     1
102
RTVSPost2010Prop32
280
     0
102
RTVSPost2010PropOp32
 70
     1
102
RTVSPost2010Prop33
280
     0
102
RTVSPost2010PropOp33
 70
     1
102
RTVSPost2010Prop34
280
     0
102
RTVSPost2010PropOp34
 70
     1
102
RTVSPost2010Prop35
280
     0
102
RTVSPost2010PropOp35
 70
     1
102
RTVSPost2010Prop36
280
     0
102
RTVSPost2010PropOp36
 70
     1
102
RTVSPost2010Prop37
 90
       50
102
RTVSPost2010PropOp37
 70
     1
102
RTVSPost2010Prop38
140
0.0
102
RTVSPost2010PropOp38
 70
     1
102
RTVSPost2010Prop39
140
1.0
102
RTVSPost2010PropOp39
 70
     1
102
RTVSPost2010Prop40
 90
        0
102
RTVSPost2010PropOp40
 70
     1
102
RTVSPost2010Prop41ColorIndex
 90
       18
102
RTVSPost2010Prop41ColorRGB
 90
        0
102
RTVSPost2010PropOp41
 70
     1
102
RTVSPost2010Prop42
 90
       50
102
RTVSPost2010PropOp42
 70
     1
102
RTVSPost2010Prop43
 90
        3
102
RTVSPost2010PropOp43
 70
     1
102
RTVSPost2010Prop44ColorIndex
 90
        5
102
RTVSPost2010Prop44ColorRGB
 90
      255
102
RTVSPost2010PropOp44
 70
     1
102
RTVSPost2010Prop45
280
     0
102
RTVSPost2010PropOp45
 70
     1
102
RTVSPost2010Prop46
 90
       50
102
RTVSPost2010PropOp46
 70
     1
102
RTVSPost2010Prop47
 90
       50
102
RTVSPost2010PropOp47
 70
     1
102
RTVSPost2010Prop48
 90
       50
102
RTVSPost2010PropOp48
 70
     1
102
RTVSPost2010Prop49
280
     0
102
RTVSPost2010PropOp49
 70
     1
102
RTVSPost2010Prop50
 90
       50
102
RTVSPost2010PropOp50
 70
     1
102
RTVSPost2010Prop51ColorIndex
 90
      256
102
RTVSPost2010Prop51ColorRGB
 90
-16777216
102
RTVSPost2010PropOp51
 70
     0
102
RTVSPost2010Prop52
140
1.0
102
RTVSPost2010PropOp52
 70
     0
102
RTVSPost2010Prop53
 90
        2
102
RTVSPost2010PropOp53
 70
     1
102
RTVSPost2010Prop54
  1
strokes_ogs.tif
102
RTVSPost2010PropOp54
 70
     1
102
RTVSPost2010Prop55
280
     0
102
RTVSPost2010PropOp55
 70
     1
102
RTVSPost2010Prop56
140
1.0
102
RTVSPost2010PropOp56
 70
     1
102
RTVSPost2010Prop57
140
1.0
102
RTVSPost2010PropOp57
 70
     1
  0
XRECORD
  5
B6
102
{ACAD_REACTORS
330
B5
102
}
330
B5
100
AcDbXrecord
280
     1
102
RTVSPropertyOp0
 70
     0
102
RTVSPropertyOp1
 70
     0
102
RTVSPropertyOp2
 70
     0
102
RTVSPropertyOp3
 70
     0
102
RTVSPropertyOp4
 70
     0
102
RTVSPropertyOp5
 70
     0
102
RTVSPropertyOp6
 70
     0
102
RTVSPropertyOp7
 70
     0
102
RTVSPropertyOp8
 70
     0
102
RTVSPropertyOp9
 70
     0
102
RTVSPropertyOp10
 70
     0
102
RTVSPropertyOp11
 70
     0
102
RTVSPropertyOp12
 70
     0
102
RTVSPropertyOp13
 70
     0
102
RTVSPropertyOp14
 70
     2
102
RTVSPropertyOp15
 70
     0
102
RTVSPropertyOp16
 70
     0
102
RTVSPropertyOp17
 70
     0
102
RTVSPropertyOp18
 70
     0
102
RTVSPropertyOp19
 70
     0
102
RTVSPropertyOp20
 70
     0
102
RTVSPropertyOp21
 70
     0
102
RTVSPropertyOp22
 70
     0
102
RTVSPropertyOp23
 70
     0
102
RTVSPropertyOp24
 70
     0
102
RTVSPropertyOp25
 70
     0
102
RTVSPropertyOp26
 70
     0
102
RTVSPropertyOp27
 70
     0
102
RTVSPropertyOp28
 70
     0
102
RTVSPropertyOp29
 70
     0
102
RTVSPropertyOp30
 70
     0
102
RTVSPropertyOp31
 70
     0
102
RTVSPropertyOp32
 70
     0
102
RTVSPropertyOp33
 70
     0
102
RTVSPropertyOp34
 70
     0
102
RTVSPropertyOp35
 70
     0
102
RTVSPropertyOp36
 70
     0
102
RTVSPropertyOp37
 70
     0
102
RTVSPropertyOp38
 70
     0
102
RTVSPropertyOp39
 70
     0
102
RTVSPropertyOp40
 70
     0
102
RTVSPropertyOp41
 70
     0
102
RTVSPropertyOp42
 70
     0
102
RTVSPropertyOp43
 70
     0
102
RTVSPropertyOp44
 70
     0
102
RTVSPropertyOp45
 70
     0
102
RTVSPropertyOp46
 70
     0
102
RTVSPropertyOp47
 70
     0
102
RTVSPropertyOp48
 70
     0
102
RTVSPropertyOp49
 70
     0
102
RTVSPropertyOp50
 70
     0
102
RTVSPropertyOp51
 70
     0
102
RTVSPropertyOp52
 70
     0
102
RTVSPropertyOp53
 70
     0
102
RTVSPropertyOp54
 70
     0
102
RTVSPropertyOp55
 70
     0
102
RTVSPropertyOp56
 70
     0
102
RTVSPropertyOp57
 70
     0
102
RTVSPost2010Prop28
280
     0
102
RTVSPost2010PropOp28
 70
     0
102
RTVSPost2010Prop29
280
     1
102
RTVSPost2010PropOp29
 70
     0
102
RTVSPost2010Prop30
280
     1
102
RTVSPost2010PropOp30
 70
     0
102
RTVSPost2010Prop31
280
     0
102
RTVSPost2010PropOp31
 70
     0
102
RTVSPost2010Prop32
280
     0
102
RTVSPost2010PropOp32
 70
     0
102
RTVSPost2010Prop33
280
     0
102
RTVSPost2010PropOp33
 70
     0
102
RTVSPost2010Prop34
280
     0
102
RTVSPost2010PropOp34
 70
     0
102
RTVSPost2010Prop35
280
     0
102
RTVSPost2010PropOp35
 70
     0
102
RTVSPost2010Prop36
280
     0
102
RTVSPost2010PropOp36
 70
     0
102
RTVSPost2010Prop37
 90
       50
102
RTVSPost2010PropOp37
 70
     0
102
RTVSPost2010Prop38
140
0.0
102
RTVSPost2010PropOp38
 70
     0
102
RTVSPost2010Prop39
140
1.0
102
RTVSPost2010PropOp39
 70
     0
102
RTVSPost2010Prop40
 90
        0
102
RTVSPost2010PropOp40
 70
     0
102
RTVSPost2010Prop41ColorIndex
 90
       18
102
RTVSPost2010Prop41ColorRGB
 90
        0
102
RTVSPost2010PropOp41
 70
     0
102
RTVSPost2010Prop42
 90
       50
102
RTVSPost2010PropOp42
 70
     0
102
RTVSPost2010Prop43
 90
        3
102
RTVSPost2010PropOp43
 70
     0
102
RTVSPost2010Prop44ColorIndex
 90
        5
102
RTVSPost2010Prop44ColorRGB
 90
      255
102
RTVSPost2010PropOp44
 70
     0
102
RTVSPost2010Prop45
280
     0
102
RTVSPost2010PropOp45
 70
     0
102
RTVSPost2010Prop46
 90
       50
102
RTVSPost2010PropOp46
 70
     0
102
RTVSPost2010Prop47
 90
       50
102
RTVSPost2010PropOp47
 70
     0
102
RTVSPost2010Prop48
 90
       50
102
RTVSPost2010PropOp48
 70
     0
102
RTVSPost2010Prop49
280
     0
102
RTVSPost2010PropOp49
 70
     0
102
RTVSPost2010Prop50
 90
       50
102
RTVSPost2010PropOp50
 70
     0
102
RTVSPost2010Prop51ColorIndex
 90
      256
102
RTVSPost2010Prop51ColorRGB
 90
-16777216
102
RTVSPost2010PropOp51
 70
     0
102
RTVSPost2010Prop52
140
1.0
102
RTVSPost2010PropOp52
 70
     0
102
RTVSPost2010Prop53
 90
        2
102
RTVSPost2010PropOp53
 70
     0
102
RTVSPost2010Prop54
  1
strokes_ogs.tif
102
RTVSPost2010PropOp54
 70
     0
102
RTVSPost2010Prop55
280
     0
102
RTVSPost2010PropOp55
 70
     0
102
RTVSPost2010Prop56
140
1.0
102
RTVSPost2010PropOp56
 70
     0
102
RTVSPost2010Prop57
140
1.0
102
RTVSPost2010PropOp57
 70
     0
  0
XRECORD
  5
AE
102
{ACAD_REACTORS
330
AD
102
}
330
AD
100
AcDbXrecord
280
     1
102
RTVSPropertyOp0
 70
     1
102
RTVSPropertyOp1
 70
     1
102
RTVSPropertyOp2
 70
     1
102
RTVSPropertyOp3
 70
     1
102
RTVSPropertyOp4
 70
     1
102
RTVSPropertyOp5
 70
     1
102
RTVSPropertyOp6
 70
     1
102
RTVSPropertyOp7
 70
     1
102
RTVSPropertyOp8
 70
     1
102
RTVSPropertyOp9
 70
     1
102
RTVSPropertyOp10
 70
     1
102
RTVSPropertyOp11
 70
     1
102
RTVSPropertyOp12
 70
     1
102
RTVSPropertyOp13
 70
     1
102
RTVSPropertyOp14
 70
     1
102
RTVSPropertyOp15
 70
     1
102
RTVSPropertyOp16
 70
     1
102
RTVSPropertyOp17
 70
     1
102
RTVSPropertyOp18
 70
     1
102
RTVSPropertyOp19
 70
     1
102
RTVSPropertyOp20
 70
     1
102
RTVSPropertyOp21
 70
     1
102
RTVSPropertyOp22
 70
     1
102
RTVSPropertyOp23
 70
     1
102
RTVSPropertyOp24
 70
     1
102
RTVSPropertyOp25
 70
     1
102
RTVSPropertyOp26
 70
     1
102
RTVSPropertyOp27
 70
     1
102
RTVSPropertyOp28
 70
     1
102
RTVSPropertyOp29
 70
     1
102
RTVSPropertyOp30
 70
     1
102
RTVSPropertyOp31
 70
     1
102
RTVSPropertyOp32
 70
     1
102
RTVSPropertyOp33
 70
     1
102
RTVSPropertyOp34
 70
     1
102
RTVSPropertyOp35
 70
     1
102
RTVSPropertyOp36
 70
     1
102
RTVSPropertyOp37
 70
     1
102
RTVSPropertyOp38
 70
     1
102
RTVSPropertyOp39
 70
     1
102
RTVSPropertyOp40
 70
     1
102
RTVSPropertyOp41
 70
     1
102
RTVSPropertyOp42
 70
     1
102
RTVSPropertyOp43
 70
     1
102
RTVSPropertyOp44
 70
     1
102
RTVSPropertyOp45
 70
     1
102
RTVSPropertyOp46
 70
     1
102
RTVSPropertyOp47
 70
     1
102
RTVSPropertyOp48
 70
     1
102
RTVSPropertyOp49
 70
     1
102
RTVSPropertyOp50
 70
     1
102
RTVSPropertyOp51
 70
     0
102
RTVSPropertyOp52
 70
     0
102
RTVSPropertyOp53
 70
     1
102
RTVSPropertyOp54
 70
     1
102
RTVSPropertyOp55
 70
     1
102
RTVSPropertyOp56
 70
     1
102
RTVSPropertyOp57
 70
     1
102
RTVSPost2010Prop28
280
     0
102
RTVSPost2010PropOp28
 70
     1
102
RTVSPost2010Prop29
280
     1
102
RTVSPost2010PropOp29
 70
     1
102
RTVSPost2010Prop30
280
     1
102
RTVSPost2010PropOp30
 70
     1
102
RTVSPost2010Prop31
280
     0
102
RTVSPost2010PropOp31
 70
     1
102
RTVSPost2010Prop32
280
     0
102
RTVSPost2010PropOp32
 70
     1
102
RTVSPost2010Prop33
280
     0
102
RTVSPost2010PropOp33
 70
     1
102
RTVSPost2010Prop34
280
     0
102
RTVSPost2010PropOp34
 70
     1
102
RTVSPost2010Prop35
280
     0
102
RTVSPost2010PropOp35
 70
     1
102
RTVSPost2010Prop36
280
     0
102
RTVSPost2010PropOp36
 70
     1
102
RTVSPost2010Prop37
 90
       50
102
RTVSPost2010PropOp37
 70
     1
102
RTVSPost2010Prop38
140
0.0
102
RTVSPost2010PropOp38
 70
     1
102
RTVSPost2010Prop39
140
1.0
102
RTVSPost2010PropOp39
 70
     1
102
RTVSPost2010Prop40
 90
        0
102
RTVSPost2010PropOp40
 70
     1
102
RTVSPost2010Prop41ColorIndex
 90
       18
102
RTVSPost2010Prop41ColorRGB
 90
        0
102
RTVSPost2010PropOp41
 70
     1
102
RTVSPost2010Prop42
 90
       50
102
RTVSPost2010PropOp42
 70
     1
102
RTVSPost2010Prop43
 90
        3
102
RTVSPost2010PropOp43
 70
     1
102
RTVSPost2010Prop44ColorIndex
 90
        5
102
RTVSPost2010Prop44ColorRGB
 90
      255
102
RTVSPost2010PropOp44
 70
     1
102
RTVSPost2010Prop45
280
     0
102
RTVSPost2010PropOp45
 70
     1
102
RTVSPost2010Prop46
 90
       50
102
RTVSPost2010PropOp46
 70
     1
102
RTVSPost2010Prop47
 90
       50
102
RTVSPost2010PropOp47
 70
     1
102
RTVSPost2010Prop48
 90
       50
102
RTVSPost2010PropOp48
 70
     1
102
RTVSPost2010Prop49
280
     0
102
RTVSPost2010PropOp49
 70
     1
102
RTVSPost2010Prop50
 90
       50
102
RTVSPost2010PropOp50
 70
     1
102
RTVSPost2010Prop51ColorIndex
 90
      256
102
RTVSPost2010Prop51ColorRGB
 90
-16777216
102
RTVSPost2010PropOp51
 70
     0
102
RTVSPost2010Prop52
140
1.0
102
RTVSPost2010PropOp52
 70
     0
102
RTVSPost2010Prop53
 90
        2
102
RTVSPost2010PropOp53
 70
     1
102
RTVSPost2010Prop54
  1
strokes_ogs.tif
102
RTVSPost2010PropOp54
 70
     1
102
RTVSPost2010Prop55
280
     0
102
RTVSPost2010PropOp55
 70
     1
102
RTVSPost2010Prop56
140
1.0
102
RTVSPost2010PropOp56
 70
     1
102
RTVSPost2010Prop57
140
1.0
102
RTVSPost2010PropOp57
 70
     1
  0
XRECORD
  5
92
102
{ACAD_REACTORS
330
91
102
}
330
91
100
AcDbXrecord
280
     1
102
RTVSPropertyOp0
 70
     1
102
RTVSPropertyOp1
 70
     1
102
RTVSPropertyOp2
 70
     1
102
RTVSPropertyOp3
 70
     1
102
RTVSPropertyOp4
 70
     1
102
RTVSPropertyOp5
 70
     1
102
RTVSPropertyOp6
 70
     1
102
RTVSPropertyOp7
 70
     1
102
RTVSPropertyOp8
 70
     1
102
RTVSPropertyOp9
 70
     1
102
RTVSPropertyOp10
 70
     1
102
RTVSPropertyOp11
 70
     1
102
RTVSPropertyOp12
 70
     1
102
RTVSPropertyOp13
 70
     1
102
RTVSPropertyOp14
 70
     1
102
RTVSPropertyOp15
 70
     1
102
RTVSPropertyOp16
 70
     1
102
RTVSPropertyOp17
 70
     1
102
RTVSPropertyOp18
 70
     1
102
RTVSPropertyOp19
 70
     1
102
RTVSPropertyOp20
 70
     1
102
RTVSPropertyOp21
 70
     1
102
RTVSPropertyOp22
 70
     1
102
RTVSPropertyOp23
 70
     1
102
RTVSPropertyOp24
 70
     1
102
RTVSPropertyOp25
 70
     1
102
RTVSPropertyOp26
 70
     1
102
RTVSPropertyOp27
 70
     1
102
RTVSPropertyOp28
 70
     1
102
RTVSPropertyOp29
 70
     1
102
RTVSPropertyOp30
 70
     1
102
RTVSPropertyOp31
 70
     1
102
RTVSPropertyOp32
 70
     1
102
RTVSPropertyOp33
 70
     1
102
RTVSPropertyOp34
 70
     1
102
RTVSPropertyOp35
 70
     1
102
RTVSPropertyOp36
 70
     1
102
RTVSPropertyOp37
 70
     1
102
RTVSPropertyOp38
 70
     1
102
RTVSPropertyOp39
 70
     1
102
RTVSPropertyOp40
 70
     1
102
RTVSPropertyOp41
 70
     1
102
RTVSPropertyOp42
 70
     1
102
RTVSPropertyOp43
 70
     1
102
RTVSPropertyOp44
 70
     1
102
RTVSPropertyOp45
 70
     1
102
RTVSPropertyOp46
 70
     1
102
RTVSPropertyOp47
 70
     1
102
RTVSPropertyOp48
 70
     1
102
RTVSPropertyOp49
 70
     1
102
RTVSPropertyOp50
 70
     1
102
RTVSPropertyOp51
 70
     0
102
RTVSPropertyOp52
 70
     0
102
RTVSPropertyOp53
 70
     1
102
RTVSPropertyOp54
 70
     1
102
RTVSPropertyOp55
 70
     1
102
RTVSPropertyOp56
 70
     1
102
RTVSPropertyOp57
 70
     1
102
RTVSPost2010Prop28
280
     0
102
RTVSPost2010PropOp28
 70
     1
102
RTVSPost2010Prop29
280
     1
102
RTVSPost2010PropOp29
 70
     1
102
RTVSPost2010Prop30
280
     1
102
RTVSPost2010PropOp30
 70
     1
102
RTVSPost2010Prop31
280
     0
102
RTVSPost2010PropOp31
 70
     1
102
RTVSPost2010Prop32
280
     0
102
RTVSPost2010PropOp32
 70
     1
102
RTVSPost2010Prop33
280
     0
102
RTVSPost2010PropOp33
 70
     1
102
RTVSPost2010Prop34
280
     0
102
RTVSPost2010PropOp34
 70
     1
102
RTVSPost2010Prop35
280
     0
102
RTVSPost2010PropOp35
 70
     1
102
RTVSPost2010Prop36
280
     0
102
RTVSPost2010PropOp36
 70
     1
102
RTVSPost2010Prop37
 90
       50
102
RTVSPost2010PropOp37
 70
     1
102
RTVSPost2010Prop38
140
0.0
102
RTVSPost2010PropOp38
 70
     1
102
RTVSPost2010Prop39
140
1.0
102
RTVSPost2010PropOp39
 70
     1
102
RTVSPost2010Prop40
 90
        0
102
RTVSPost2010PropOp40
 70
     1
102
RTVSPost2010Prop41ColorIndex
 90
       18
102
RTVSPost2010Prop41ColorRGB
 90
        0
102
RTVSPost2010PropOp41
 70
     1
102
RTVSPost2010Prop42
 90
       50
102
RTVSPost2010PropOp42
 70
     1
102
RTVSPost2010Prop43
 90
        3
102
RTVSPost2010PropOp43
 70
     1
102
RTVSPost2010Prop44ColorIndex
 90
        5
102
RTVSPost2010Prop44ColorRGB
 90
      255
102
RTVSPost2010PropOp44
 70
     1
102
RTVSPost2010Prop45
280
     0
102
RTVSPost2010PropOp45
 70
     1
102
RTVSPost2010Prop46
 90
       50
102
RTVSPost2010PropOp46
 70
     1
102
RTVSPost2010Prop47
 90
       50
102
RTVSPost2010PropOp47
 70
     1
102
RTVSPost2010Prop48
 90
       50
102
RTVSPost2010PropOp48
 70
     1
102
RTVSPost2010Prop49
280
     0
102
RTVSPost2010PropOp49
 70
     1
102
RTVSPost2010Prop50
 90
       50
102
RTVSPost2010PropOp50
 70
     1
102
RTVSPost2010Prop51ColorIndex
 90
      256
102
RTVSPost2010Prop51ColorRGB
 90
-16777216
102
RTVSPost2010PropOp51
 70
     0
102
RTVSPost2010Prop52
140
1.0
102
RTVSPost2010PropOp52
 70
     0
102
RTVSPost2010Prop53
 90
        2
102
RTVSPost2010PropOp53
 70
     1
102
RTVSPost2010Prop54
  1
strokes_ogs.tif
102
RTVSPost2010PropOp54
 70
     1
102
RTVSPost2010Prop55
280
     0
102
RTVSPost2010PropOp55
 70
     1
102
RTVSPost2010Prop56
140
1.0
102
RTVSPost2010PropOp56
 70
     1
102
RTVSPost2010Prop57
140
1.0
102
RTVSPost2010PropOp57
 70
     1
  0
XRECORD
  5
94
102
{ACAD_REACTORS
330
93
102
}
330
93
100
AcDbXrecord
280
     1
102
RTVSPropertyOp0
 70
     1
102
RTVSPropertyOp1
 70
     1
102
RTVSPropertyOp2
 70
     1
102
RTVSPropertyOp3
 70
     1
102
RTVSPropertyOp4
 70
     1
102
RTVSPropertyOp5
 70
     1
102
RTVSPropertyOp6
 70
     1
102
RTVSPropertyOp7
 70
     1
102
RTVSPropertyOp8
 70
     1
102
RTVSPropertyOp9
 70
     1
102
RTVSPropertyOp10
 70
     1
102
RTVSPropertyOp11
 70
     1
102
RTVSPropertyOp12
 70
     1
102
RTVSPropertyOp13
 70
     1
102
RTVSPropertyOp14
 70
     1
102
RTVSPropertyOp15
 70
     1
102
RTVSPropertyOp16
 70
     1
102
RTVSPropertyOp17
 70
     1
102
RTVSPropertyOp18
 70
     1
102
RTVSPropertyOp19
 70
     1
102
RTVSPropertyOp20
 70
     1
102
RTVSPropertyOp21
 70
     1
102
RTVSPropertyOp22
 70
     1
102
RTVSPropertyOp23
 70
     1
102
RTVSPropertyOp24
 70
     1
102
RTVSPropertyOp25
 70
     1
102
RTVSPropertyOp26
 70
     1
102
RTVSPropertyOp27
 70
     1
102
RTVSPropertyOp28
 70
     1
102
RTVSPropertyOp29
 70
     1
102
RTVSPropertyOp30
 70
     1
102
RTVSPropertyOp31
 70
     1
102
RTVSPropertyOp32
 70
     1
102
RTVSPropertyOp33
 70
     1
102
RTVSPropertyOp34
 70
     1
102
RTVSPropertyOp35
 70
     1
102
RTVSPropertyOp36
 70
     1
102
RTVSPropertyOp37
 70
     1
102
RTVSPropertyOp38
 70
     1
102
RTVSPropertyOp39
 70
     1
102
RTVSPropertyOp40
 70
     1
102
RTVSPropertyOp41
 70
     1
102
RTVSPropertyOp42
 70
     1
102
RTVSPropertyOp43
 70
     1
102
RTVSPropertyOp44
 70
     1
102
RTVSPropertyOp45
 70
     1
102
RTVSPropertyOp46
 70
     1
102
RTVSPropertyOp47
 70
     1
102
RTVSPropertyOp48
 70
     1
102
RTVSPropertyOp49
 70
     1
102
RTVSPropertyOp50
 70
     1
102
RTVSPropertyOp51
 70
     0
102
RTVSPropertyOp52
 70
     0
102
RTVSPropertyOp53
 70
     1
102
RTVSPropertyOp54
 70
     1
102
RTVSPropertyOp55
 70
     1
102
RTVSPropertyOp56
 70
     1
102
RTVSPropertyOp57
 70
     1
102
RTVSPost2010Prop28
280
     0
102
RTVSPost2010PropOp28
 70
     1
102
RTVSPost2010Prop29
280
     1
102
RTVSPost2010PropOp29
 70
     1
102
RTVSPost2010Prop30
280
     1
102
RTVSPost2010PropOp30
 70
     1
102
RTVSPost2010Prop31
280
     0
102
RTVSPost2010PropOp31
 70
     1
102
RTVSPost2010Prop32
280
     0
102
RTVSPost2010PropOp32
 70
     1
102
RTVSPost2010Prop33
280
     0
102
RTVSPost2010PropOp33
 70
     1
102
RTVSPost2010Prop34
280
     0
102
RTVSPost2010PropOp34
 70
     1
102
RTVSPost2010Prop35
280
     0
102
RTVSPost2010PropOp35
 70
     1
102
RTVSPost2010Prop36
280
     0
102
RTVSPost2010PropOp36
 70
     1
102
RTVSPost2010Prop37
 90
       50
102
RTVSPost2010PropOp37
 70
     1
102
RTVSPost2010Prop38
140
0.0
102
RTVSPost2010PropOp38
 70
     1
102
RTVSPost2010Prop39
140
1.0
102
RTVSPost2010PropOp39
 70
     1
102
RTVSPost2010Prop40
 90
        0
102
RTVSPost2010PropOp40
 70
     1
102
RTVSPost2010Prop41ColorIndex
 90
       18
102
RTVSPost2010Prop41ColorRGB
 90
        0
102
RTVSPost2010PropOp41
 70
     1
102
RTVSPost2010Prop42
 90
       50
102
RTVSPost2010PropOp42
 70
     1
102
RTVSPost2010Prop43
 90
        3
102
RTVSPost2010PropOp43
 70
     1
102
RTVSPost2010Prop44ColorIndex
 90
        5
102
RTVSPost2010Prop44ColorRGB
 90
      255
102
RTVSPost2010PropOp44
 70
     1
102
RTVSPost2010Prop45
280
     0
102
RTVSPost2010PropOp45
 70
     1
102
RTVSPost2010Prop46
 90
       50
102
RTVSPost2010PropOp46
 70
     1
102
RTVSPost2010Prop47
 90
       50
102
RTVSPost2010PropOp47
 70
     1
102
RTVSPost2010Prop48
 90
       50
102
RTVSPost2010PropOp48
 70
     1
102
RTVSPost2010Prop49
280
     0
102
RTVSPost2010PropOp49
 70
     1
102
RTVSPost2010Prop50
 90
       50
102
RTVSPost2010PropOp50
 70
     1
102
RTVSPost2010Prop51ColorIndex
 90
      256
102
RTVSPost2010Prop51ColorRGB
 90
-16777216
102
RTVSPost2010PropOp51
 70
     0
102
RTVSPost2010Prop52
140
1.0
102
RTVSPost2010PropOp52
 70
     0
102
RTVSPost2010Prop53
 90
        2
102
RTVSPost2010PropOp53
 70
     1
102
RTVSPost2010Prop54
  1
strokes_ogs.tif
102
RTVSPost2010PropOp54
 70
     1
102
RTVSPost2010Prop55
280
     0
102
RTVSPost2010PropOp55
 70
     1
102
RTVSPost2010Prop56
140
1.0
102
RTVSPost2010PropOp56
 70
     1
102
RTVSPost2010Prop57
140
1.0
102
RTVSPost2010PropOp57
 70
     1
  0
XRECORD
  5
96
102
{ACAD_REACTORS
330
95
102
}
330
95
100
AcDbXrecord
280
     1
102
RTVSPropertyOp0
 70
     1
102
RTVSPropertyOp1
 70
     1
102
RTVSPropertyOp2
 70
     1
102
RTVSPropertyOp3
 70
     1
102
RTVSPropertyOp4
 70
     1
102
RTVSPropertyOp5
 70
     1
102
RTVSPropertyOp6
 70
     1
102
RTVSPropertyOp7
 70
     1
102
RTVSPropertyOp8
 70
     1
102
RTVSPropertyOp9
 70
     1
102
RTVSPropertyOp10
 70
     1
102
RTVSPropertyOp11
 70
     1
102
RTVSPropertyOp12
 70
     1
102
RTVSPropertyOp13
 70
     1
102
RTVSPropertyOp14
 70
     1
102
RTVSPropertyOp15
 70
     1
102
RTVSPropertyOp16
 70
     1
102
RTVSPropertyOp17
 70
     1
102
RTVSPropertyOp18
 70
     1
102
RTVSPropertyOp19
 70
     1
102
RTVSPropertyOp20
 70
     1
102
RTVSPropertyOp21
 70
     1
102
RTVSPropertyOp22
 70
     1
102
RTVSPropertyOp23
 70
     1
102
RTVSPropertyOp24
 70
     1
102
RTVSPropertyOp25
 70
     1
102
RTVSPropertyOp26
 70
     1
102
RTVSPropertyOp27
 70
     1
102
RTVSPropertyOp28
 70
     1
102
RTVSPropertyOp29
 70
     1
102
RTVSPropertyOp30
 70
     1
102
RTVSPropertyOp31
 70
     1
102
RTVSPropertyOp32
 70
     1
102
RTVSPropertyOp33
 70
     1
102
RTVSPropertyOp34
 70
     1
102
RTVSPropertyOp35
 70
     1
102
RTVSPropertyOp36
 70
     1
102
RTVSPropertyOp37
 70
     1
102
RTVSPropertyOp38
 70
     1
102
RTVSPropertyOp39
 70
     1
102
RTVSPropertyOp40
 70
     1
102
RTVSPropertyOp41
 70
     1
102
RTVSPropertyOp42
 70
     1
102
RTVSPropertyOp43
 70
     1
102
RTVSPropertyOp44
 70
     1
102
RTVSPropertyOp45
 70
     1
102
RTVSPropertyOp46
 70
     1
102
RTVSPropertyOp47
 70
     1
102
RTVSPropertyOp48
 70
     1
102
RTVSPropertyOp49
 70
     1
102
RTVSPropertyOp50
 70
     1
102
RTVSPropertyOp51
 70
     0
102
RTVSPropertyOp52
 70
     0
102
RTVSPropertyOp53
 70
     1
102
RTVSPropertyOp54
 70
     1
102
RTVSPropertyOp55
 70
     1
102
RTVSPropertyOp56
 70
     1
102
RTVSPropertyOp57
 70
     1
102
RTVSPost2010Prop28
280
     0
102
RTVSPost2010PropOp28
 70
     1
102
RTVSPost2010Prop29
280
     1
102
RTVSPost2010PropOp29
 70
     1
102
RTVSPost2010Prop30
280
     1
102
RTVSPost2010PropOp30
 70
     1
102
RTVSPost2010Prop31
280
     0
102
RTVSPost2010PropOp31
 70
     1
102
RTVSPost2010Prop32
280
     0
102
RTVSPost2010PropOp32
 70
     1
102
RTVSPost2010Prop33
280
     0
102
RTVSPost2010PropOp33
 70
     1
102
RTVSPost2010Prop34
280
     0
102
RTVSPost2010PropOp34
 70
     1
102
RTVSPost2010Prop35
280
     0
102
RTVSPost2010PropOp35
 70
     1
102
RTVSPost2010Prop36
280
     0
102
RTVSPost2010PropOp36
 70
     1
102
RTVSPost2010Prop37
 90
       50
102
RTVSPost2010PropOp37
 70
     1
102
RTVSPost2010Prop38
140
0.0
102
RTVSPost2010PropOp38
 70
     1
102
RTVSPost2010Prop39
140
1.0
102
RTVSPost2010PropOp39
 70
     1
102
RTVSPost2010Prop40
 90
        0
102
RTVSPost2010PropOp40
 70
     1
102
RTVSPost2010Prop41ColorIndex
 90
       18
102
RTVSPost2010Prop41ColorRGB
 90
        0
102
RTVSPost2010PropOp41
 70
     1
102
RTVSPost2010Prop42
 90
       50
102
RTVSPost2010PropOp42
 70
     1
102
RTVSPost2010Prop43
 90
        3
102
RTVSPost2010PropOp43
 70
     1
102
RTVSPost2010Prop44ColorIndex
 90
        5
102
RTVSPost2010Prop44ColorRGB
 90
      255
102
RTVSPost2010PropOp44
 70
     1
102
RTVSPost2010Prop45
280
     0
102
RTVSPost2010PropOp45
 70
     1
102
RTVSPost2010Prop46
 90
       50
102
RTVSPost2010PropOp46
 70
     1
102
RTVSPost2010Prop47
 90
       50
102
RTVSPost2010PropOp47
 70
     1
102
RTVSPost2010Prop48
 90
       50
102
RTVSPost2010PropOp48
 70
     1
102
RTVSPost2010Prop49
280
     0
102
RTVSPost2010PropOp49
 70
     1
102
RTVSPost2010Prop50
 90
       50
102
RTVSPost2010PropOp50
 70
     1
102
RTVSPost2010Prop51ColorIndex
 90
      256
102
RTVSPost2010Prop51ColorRGB
 90
-16777216
102
RTVSPost2010PropOp51
 70
     0
102
RTVSPost2010Prop52
140
1.0
102
RTVSPost2010PropOp52
 70
     0
102
RTVSPost2010Prop53
 90
        2
102
RTVSPost2010PropOp53
 70
     1
102
RTVSPost2010Prop54
  1
strokes_ogs.tif
102
RTVSPost2010PropOp54
 70
     1
102
RTVSPost2010Prop55
280
     0
102
RTVSPost2010PropOp55
 70
     1
102
RTVSPost2010Prop56
140
1.0
102
RTVSPost2010PropOp56
 70
     1
102
RTVSPost2010Prop57
140
1.0
102
RTVSPost2010PropOp57
 70
     1
  0
XRECORD
  5
98
102
{ACAD_REACTORS
330
97
102
}
330
97
100
AcDbXrecord
280
     1
102
RTVSPropertyOp0
 70
     1
102
RTVSPropertyOp1
 70
     1
102
RTVSPropertyOp2
 70
     1
102
RTVSPropertyOp3
 70
     1
102
RTVSPropertyOp4
 70
     1
102
RTVSPropertyOp5
 70
     1
102
RTVSPropertyOp6
 70
     1
102
RTVSPropertyOp7
 70
     1
102
RTVSPropertyOp8
 70
     1
102
RTVSPropertyOp9
 70
     1
102
RTVSPropertyOp10
 70
     1
102
RTVSPropertyOp11
 70
     1
102
RTVSPropertyOp12
 70
     1
102
RTVSPropertyOp13
 70
     1
102
RTVSPropertyOp14
 70
     1
102
RTVSPropertyOp15
 70
     1
102
RTVSPropertyOp16
 70
     1
102
RTVSPropertyOp17
 70
     1
102
RTVSPropertyOp18
 70
     1
102
RTVSPropertyOp19
 70
     1
102
RTVSPropertyOp20
 70
     1
102
RTVSPropertyOp21
 70
     1
102
RTVSPropertyOp22
 70
     1
102
RTVSPropertyOp23
 70
     1
102
RTVSPropertyOp24
 70
     1
102
RTVSPropertyOp25
 70
     1
102
RTVSPropertyOp26
 70
     1
102
RTVSPropertyOp27
 70
     1
102
RTVSPropertyOp28
 70
     1
102
RTVSPropertyOp29
 70
     1
102
RTVSPropertyOp30
 70
     1
102
RTVSPropertyOp31
 70
     1
102
RTVSPropertyOp32
 70
     1
102
RTVSPropertyOp33
 70
     1
102
RTVSPropertyOp34
 70
     1
102
RTVSPropertyOp35
 70
     1
102
RTVSPropertyOp36
 70
     1
102
RTVSPropertyOp37
 70
     1
102
RTVSPropertyOp38
 70
     1
102
RTVSPropertyOp39
 70
     1
102
RTVSPropertyOp40
 70
     1
102
RTVSPropertyOp41
 70
     1
102
RTVSPropertyOp42
 70
     1
102
RTVSPropertyOp43
 70
     1
102
RTVSPropertyOp44
 70
     1
102
RTVSPropertyOp45
 70
     1
102
RTVSPropertyOp46
 70
     1
102
RTVSPropertyOp47
 70
     1
102
RTVSPropertyOp48
 70
     1
102
RTVSPropertyOp49
 70
     1
102
RTVSPropertyOp50
 70
     1
102
RTVSPropertyOp51
 70
     0
102
RTVSPropertyOp52
 70
     0
102
RTVSPropertyOp53
 70
     1
102
RTVSPropertyOp54
 70
     1
102
RTVSPropertyOp55
 70
     1
102
RTVSPropertyOp56
 70
     1
102
RTVSPropertyOp57
 70
     1
102
RTVSPost2010Prop28
280
     0
102
RTVSPost2010PropOp28
 70
     1
102
RTVSPost2010Prop29
280
     1
102
RTVSPost2010PropOp29
 70
     1
102
RTVSPost2010Prop30
280
     1
102
RTVSPost2010PropOp30
 70
     1
102
RTVSPost2010Prop31
280
     0
102
RTVSPost2010PropOp31
 70
     1
102
RTVSPost2010Prop32
280
     0
102
RTVSPost2010PropOp32
 70
     1
102
RTVSPost2010Prop33
280
     0
102
RTVSPost2010PropOp33
 70
     1
102
RTVSPost2010Prop34
280
     0
102
RTVSPost2010PropOp34
 70
     1
102
RTVSPost2010Prop35
280
     0
102
RTVSPost2010PropOp35
 70
     1
102
RTVSPost2010Prop36
280
     0
102
RTVSPost2010PropOp36
 70
     1
102
RTVSPost2010Prop37
 90
       50
102
RTVSPost2010PropOp37
 70
     1
102
RTVSPost2010Prop38
140
0.0
102
RTVSPost2010PropOp38
 70
     1
102
RTVSPost2010Prop39
140
1.0
102
RTVSPost2010PropOp39
 70
     1
102
RTVSPost2010Prop40
 90
        0
102
RTVSPost2010PropOp40
 70
     1
102
RTVSPost2010Prop41ColorIndex
 90
       18
102
RTVSPost2010Prop41ColorRGB
 90
        0
102
RTVSPost2010PropOp41
 70
     1
102
RTVSPost2010Prop42
 90
       50
102
RTVSPost2010PropOp42
 70
     1
102
RTVSPost2010Prop43
 90
        3
102
RTVSPost2010PropOp43
 70
     1
102
RTVSPost2010Prop44ColorIndex
 90
        5
102
RTVSPost2010Prop44ColorRGB
 90
      255
102
RTVSPost2010PropOp44
 70
     1
102
RTVSPost2010Prop45
280
     0
102
RTVSPost2010PropOp45
 70
     1
102
RTVSPost2010Prop46
 90
       50
102
RTVSPost2010PropOp46
 70
     1
102
RTVSPost2010Prop47
 90
       50
102
RTVSPost2010PropOp47
 70
     1
102
RTVSPost2010Prop48
 90
       50
102
RTVSPost2010PropOp48
 70
     1
102
RTVSPost2010Prop49
280
     0
102
RTVSPost2010PropOp49
 70
     1
102
RTVSPost2010Prop50
 90
       50
102
RTVSPost2010PropOp50
 70
     1
102
RTVSPost2010Prop51ColorIndex
 90
      256
102
RTVSPost2010Prop51ColorRGB
 90
-16777216
102
RTVSPost2010PropOp51
 70
     0
102
RTVSPost2010Prop52
140
1.0
102
RTVSPost2010PropOp52
 70
     0
102
RTVSPost2010Prop53
 90
        2
102
RTVSPost2010PropOp53
 70
     1
102
RTVSPost2010Prop54
  1
strokes_ogs.tif
102
RTVSPost2010PropOp54
 70
     1
102
RTVSPost2010Prop55
280
     0
102
RTVSPost2010PropOp55
 70
     1
102
RTVSPost2010Prop56
140
1.0
102
RTVSPost2010PropOp56
 70
     1
102
RTVSPost2010Prop57
140
1.0
102
RTVSPost2010PropOp57
 70
     1
  0
XRECORD
  5
9E
102
{ACAD_REACTORS
330
9D
102
}
330
9D
100
AcDbXrecord
280
     1
102
RTVSPropertyOp0
 70
     1
102
RTVSPropertyOp1
 70
     1
102
RTVSPropertyOp2
 70
     1
102
RTVSPropertyOp3
 70
     1
102
RTVSPropertyOp4
 70
     1
102
RTVSPropertyOp5
 70
     1
102
RTVSPropertyOp6
 70
     1
102
RTVSPropertyOp7
 70
     1
102
RTVSPropertyOp8
 70
     1
102
RTVSPropertyOp9
 70
     1
102
RTVSPropertyOp10
 70
     1
102
RTVSPropertyOp11
 70
     1
102
RTVSPropertyOp12
 70
     1
102
RTVSPropertyOp13
 70
     1
102
RTVSPropertyOp14
 70
     1
102
RTVSPropertyOp15
 70
     1
102
RTVSPropertyOp16
 70
     1
102
RTVSPropertyOp17
 70
     1
102
RTVSPropertyOp18
 70
     1
102
RTVSPropertyOp19
 70
     1
102
RTVSPropertyOp20
 70
     1
102
RTVSPropertyOp21
 70
     1
102
RTVSPropertyOp22
 70
     1
102
RTVSPropertyOp23
 70
     1
102
RTVSPropertyOp24
 70
     1
102
RTVSPropertyOp25
 70
     1
102
RTVSPropertyOp26
 70
     1
102
RTVSPropertyOp27
 70
     1
102
RTVSPropertyOp28
 70
     1
102
RTVSPropertyOp29
 70
     1
102
RTVSPropertyOp30
 70
     1
102
RTVSPropertyOp31
 70
     1
102
RTVSPropertyOp32
 70
     1
102
RTVSPropertyOp33
 70
     1
102
RTVSPropertyOp34
 70
     1
102
RTVSPropertyOp35
 70
     1
102
RTVSPropertyOp36
 70
     1
102
RTVSPropertyOp37
 70
     1
102
RTVSPropertyOp38
 70
     1
102
RTVSPropertyOp39
 70
     1
102
RTVSPropertyOp40
 70
     1
102
RTVSPropertyOp41
 70
     1
102
RTVSPropertyOp42
 70
     1
102
RTVSPropertyOp43
 70
     1
102
RTVSPropertyOp44
 70
     1
102
RTVSPropertyOp45
 70
     1
102
RTVSPropertyOp46
 70
     1
102
RTVSPropertyOp47
 70
     1
102
RTVSPropertyOp48
 70
     1
102
RTVSPropertyOp49
 70
     1
102
RTVSPropertyOp50
 70
     1
102
RTVSPropertyOp51
 70
     0
102
RTVSPropertyOp52
 70
     0
102
RTVSPropertyOp53
 70
     1
102
RTVSPropertyOp54
 70
     1
102
RTVSPropertyOp55
 70
     1
102
RTVSPropertyOp56
 70
     1
102
RTVSPropertyOp57
 70
     1
102
RTVSPost2010Prop28
280
     0
102
RTVSPost2010PropOp28
 70
     1
102
RTVSPost2010Prop29
280
     1
102
RTVSPost2010PropOp29
 70
     1
102
RTVSPost2010Prop30
280
     1
102
RTVSPost2010PropOp30
 70
     1
102
RTVSPost2010Prop31
280
     0
102
RTVSPost2010PropOp31
 70
     1
102
RTVSPost2010Prop32
280
     0
102
RTVSPost2010PropOp32
 70
     1
102
RTVSPost2010Prop33
280
     0
102
RTVSPost2010PropOp33
 70
     1
102
RTVSPost2010Prop34
280
     0
102
RTVSPost2010PropOp34
 70
     1
102
RTVSPost2010Prop35
280
     0
102
RTVSPost2010PropOp35
 70
     1
102
RTVSPost2010Prop36
280
     0
102
RTVSPost2010PropOp36
 70
     1
102
RTVSPost2010Prop37
 90
       50
102
RTVSPost2010PropOp37
 70
     1
102
RTVSPost2010Prop38
140
0.0
102
RTVSPost2010PropOp38
 70
     1
102
RTVSPost2010Prop39
140
1.0
102
RTVSPost2010PropOp39
 70
     1
102
RTVSPost2010Prop40
 90
        0
102
RTVSPost2010PropOp40
 70
     1
102
RTVSPost2010Prop41ColorIndex
 90
       18
102
RTVSPost2010Prop41ColorRGB
 90
        0
102
RTVSPost2010PropOp41
 70
     1
102
RTVSPost2010Prop42
 90
       50
102
RTVSPost2010PropOp42
 70
     1
102
RTVSPost2010Prop43
 90
        3
102
RTVSPost2010PropOp43
 70
     1
102
RTVSPost2010Prop44ColorIndex
 90
        5
102
RTVSPost2010Prop44ColorRGB
 90
      255
102
RTVSPost2010PropOp44
 70
     1
102
RTVSPost2010Prop45
280
     0
102
RTVSPost2010PropOp45
 70
     1
102
RTVSPost2010Prop46
 90
       50
102
RTVSPost2010PropOp46
 70
     1
102
RTVSPost2010Prop47
 90
       50
102
RTVSPost2010PropOp47
 70
     1
102
RTVSPost2010Prop48
 90
       50
102
RTVSPost2010PropOp48
 70
     1
102
RTVSPost2010Prop49
280
     0
102
RTVSPost2010PropOp49
 70
     1
102
RTVSPost2010Prop50
 90
       50
102
RTVSPost2010PropOp50
 70
     1
102
RTVSPost2010Prop51ColorIndex
 90
      256
102
RTVSPost2010Prop51ColorRGB
 90
-16777216
102
RTVSPost2010PropOp51
 70
     0
102
RTVSPost2010Prop52
140
1.0
102
RTVSPost2010PropOp52
 70
     0
102
RTVSPost2010Prop53
 90
        2
102
RTVSPost2010PropOp53
 70
     1
102
RTVSPost2010Prop54
  1
strokes_ogs.tif
102
RTVSPost2010PropOp54
 70
     1
102
RTVSPost2010Prop55
280
     0
102
RTVSPost2010PropOp55
 70
     1
102
RTVSPost2010Prop56
140
1.0
102
RTVSPost2010PropOp56
 70
     1
102
RTVSPost2010Prop57
140
1.0
102
RTVSPost2010PropOp57
 70
     1
  0
XRECORD
  5
B2
102
{ACAD_REACTORS
330
B1
102
}
330
B1
100
AcDbXrecord
280
     1
102
RTVSPropertyOp0
 70
     0
102
RTVSPropertyOp1
 70
     0
102
RTVSPropertyOp2
 70
     0
102
RTVSPropertyOp3
 70
     0
102
RTVSPropertyOp4
 70
     0
102
RTVSPropertyOp5
 70
     0
102
RTVSPropertyOp6
 70
     0
102
RTVSPropertyOp7
 70
     0
102
RTVSPropertyOp8
 70
     0
102
RTVSPropertyOp9
 70
     0
102
RTVSPropertyOp10
 70
     0
102
RTVSPropertyOp11
 70
     0
102
RTVSPropertyOp12
 70
     0
102
RTVSPropertyOp13
 70
     0
102
RTVSPropertyOp14
 70
     2
102
RTVSPropertyOp15
 70
     0
102
RTVSPropertyOp16
 70
     0
102
RTVSPropertyOp17
 70
     0
102
RTVSPropertyOp18
 70
     0
102
RTVSPropertyOp19
 70
     0
102
RTVSPropertyOp20
 70
     0
102
RTVSPropertyOp21
 70
     0
102
RTVSPropertyOp22
 70
     0
102
RTVSPropertyOp23
 70
     0
102
RTVSPropertyOp24
 70
     0
102
RTVSPropertyOp25
 70
     0
102
RTVSPropertyOp26
 70
     0
102
RTVSPropertyOp27
 70
     0
102
RTVSPropertyOp28
 70
     0
102
RTVSPropertyOp29
 70
     0
102
RTVSPropertyOp30
 70
     0
102
RTVSPropertyOp31
 70
     0
102
RTVSPropertyOp32
 70
     0
102
RTVSPropertyOp33
 70
     0
102
RTVSPropertyOp34
 70
     0
102
RTVSPropertyOp35
 70
     0
102
RTVSPropertyOp36
 70
     0
102
RTVSPropertyOp37
 70
     0
102
RTVSPropertyOp38
 70
     0
102
RTVSPropertyOp39
 70
     0
102
RTVSPropertyOp40
 70
     0
102
RTVSPropertyOp41
 70
     0
102
RTVSPropertyOp42
 70
     0
102
RTVSPropertyOp43
 70
     0
102
RTVSPropertyOp44
 70
     0
102
RTVSPropertyOp45
 70
     0
102
RTVSPropertyOp46
 70
     0
102
RTVSPropertyOp47
 70
     0
102
RTVSPropertyOp48
 70
     0
102
RTVSPropertyOp49
 70
     0
102
RTVSPropertyOp50
 70
     0
102
RTVSPropertyOp51
 70
     0
102
RTVSPropertyOp52
 70
     0
102
RTVSPropertyOp53
 70
     0
102
RTVSPropertyOp54
 70
     0
102
RTVSPropertyOp55
 70
     0
102
RTVSPropertyOp56
 70
     0
102
RTVSPropertyOp57
 70
     0
102
RTVSPost2010Prop28
280
     0
102
RTVSPost2010PropOp28
 70
     0
102
RTVSPost2010Prop29
280
     1
102
RTVSPost2010PropOp29
 70
     0
102
RTVSPost2010Prop30
280
     1
102
RTVSPost2010PropOp30
 70
     0
102
RTVSPost2010Prop31
280
     0
102
RTVSPost2010PropOp31
 70
     0
102
RTVSPost2010Prop32
280
     0
102
RTVSPost2010PropOp32
 70
     0
102
RTVSPost2010Prop33
280
     0
102
RTVSPost2010PropOp33
 70
     0
102
RTVSPost2010Prop34
280
     0
102
RTVSPost2010PropOp34
 70
     0
102
RTVSPost2010Prop35
280
     0
102
RTVSPost2010PropOp35
 70
     0
102
RTVSPost2010Prop36
280
     0
102
RTVSPost2010PropOp36
 70
     0
102
RTVSPost2010Prop37
 90
       50
102
RTVSPost2010PropOp37
 70
     0
102
RTVSPost2010Prop38
140
0.0
102
RTVSPost2010PropOp38
 70
     0
102
RTVSPost2010Prop39
140
1.0
102
RTVSPost2010PropOp39
 70
     0
102
RTVSPost2010Prop40
 90
        0
102
RTVSPost2010PropOp40
 70
     0
102
RTVSPost2010Prop41ColorIndex
 90
       18
102
RTVSPost2010Prop41ColorRGB
 90
        0
102
RTVSPost2010PropOp41
 70
     0
102
RTVSPost2010Prop42
 90
       50
102
RTVSPost2010PropOp42
 70
     0
102
RTVSPost2010Prop43
 90
        3
102
RTVSPost2010PropOp43
 70
     0
102
RTVSPost2010Prop44ColorIndex
 90
        5
102
RTVSPost2010Prop44ColorRGB
 90
      255
102
RTVSPost2010PropOp44
 70
     0
102
RTVSPost2010Prop45
280
     0
102
RTVSPost2010PropOp45
 70
     0
102
RTVSPost2010Prop46
 90
       50
102
RTVSPost2010PropOp46
 70
     0
102
RTVSPost2010Prop47
 90
       50
102
RTVSPost2010PropOp47
 70
     0
102
RTVSPost2010Prop48
 90
       50
102
RTVSPost2010PropOp48
 70
     0
102
RTVSPost2010Prop49
280
     0
102
RTVSPost2010PropOp49
 70
     0
102
RTVSPost2010Prop50
 90
       50
102
RTVSPost2010PropOp50
 70
     0
102
RTVSPost2010Prop51ColorIndex
 90
      256
102
RTVSPost2010Prop51ColorRGB
 90
-16777216
102
RTVSPost2010PropOp51
 70
     0
102
RTVSPost2010Prop52
140
1.0
102
RTVSPost2010PropOp52
 70
     0
102
RTVSPost2010Prop53
 90
        2
102
RTVSPost2010PropOp53
 70
     0
102
RTVSPost2010Prop54
  1
strokes_ogs.tif
102
RTVSPost2010PropOp54
 70
     0
102
RTVSPost2010Prop55
280
     0
102
RTVSPost2010PropOp55
 70
     0
102
RTVSPost2010Prop56
140
1.0
102
RTVSPost2010PropOp56
 70
     0
102
RTVSPost2010Prop57
140
1.0
102
RTVSPost2010PropOp57
 70
     0
  0
XRECORD
  5
AC
102
{ACAD_REACTORS
330
AB
102
}
330
AB
100
AcDbXrecord
280
     1
102
RTVSPropertyOp0
 70
     1
102
RTVSPropertyOp1
 70
     1
102
RTVSPropertyOp2
 70
     1
102
RTVSPropertyOp3
 70
     1
102
RTVSPropertyOp4
 70
     1
102
RTVSPropertyOp5
 70
     1
102
RTVSPropertyOp6
 70
     1
102
RTVSPropertyOp7
 70
     1
102
RTVSPropertyOp8
 70
     1
102
RTVSPropertyOp9
 70
     1
102
RTVSPropertyOp10
 70
     1
102
RTVSPropertyOp11
 70
     1
102
RTVSPropertyOp12
 70
     1
102
RTVSPropertyOp13
 70
     1
102
RTVSPropertyOp14
 70
     1
102
RTVSPropertyOp15
 70
     1
102
RTVSPropertyOp16
 70
     1
102
RTVSPropertyOp17
 70
     1
102
RTVSPropertyOp18
 70
     1
102
RTVSPropertyOp19
 70
     1
102
RTVSPropertyOp20
 70
     1
102
RTVSPropertyOp21
 70
     1
102
RTVSPropertyOp22
 70
     1
102
RTVSPropertyOp23
 70
     1
102
RTVSPropertyOp24
 70
     1
102
RTVSPropertyOp25
 70
     1
102
RTVSPropertyOp26
 70
     1
102
RTVSPropertyOp27
 70
     1
102
RTVSPropertyOp28
 70
     1
102
RTVSPropertyOp29
 70
     1
102
RTVSPropertyOp30
 70
     1
102
RTVSPropertyOp31
 70
     1
102
RTVSPropertyOp32
 70
     1
102
RTVSPropertyOp33
 70
     1
102
RTVSPropertyOp34
 70
     1
102
RTVSPropertyOp35
 70
     1
102
RTVSPropertyOp36
 70
     1
102
RTVSPropertyOp37
 70
     1
102
RTVSPropertyOp38
 70
     1
102
RTVSPropertyOp39
 70
     1
102
RTVSPropertyOp40
 70
     1
102
RTVSPropertyOp41
 70
     1
102
RTVSPropertyOp42
 70
     1
102
RTVSPropertyOp43
 70
     1
102
RTVSPropertyOp44
 70
     1
102
RTVSPropertyOp45
 70
     1
102
RTVSPropertyOp46
 70
     1
102
RTVSPropertyOp47
 70
     1
102
RTVSPropertyOp48
 70
     1
102
RTVSPropertyOp49
 70
     1
102
RTVSPropertyOp50
 70
     1
102
RTVSPropertyOp51
 70
     0
102
RTVSPropertyOp52
 70
     0
102
RTVSPropertyOp53
 70
     1
102
RTVSPropertyOp54
 70
     1
102
RTVSPropertyOp55
 70
     1
102
RTVSPropertyOp56
 70
     1
102
RTVSPropertyOp57
 70
     1
102
RTVSPost2010Prop28
280
     0
102
RTVSPost2010PropOp28
 70
     1
102
RTVSPost2010Prop29
280
     1
102
RTVSPost2010PropOp29
 70
     1
102
RTVSPost2010Prop30
280
     1
102
RTVSPost2010PropOp30
 70
     1
102
RTVSPost2010Prop31
280
     0
102
RTVSPost2010PropOp31
 70
     1
102
RTVSPost2010Prop32
280
     0
102
RTVSPost2010PropOp32
 70
     1
102
RTVSPost2010Prop33
280
     0
102
RTVSPost2010PropOp33
 70
     1
102
RTVSPost2010Prop34
280
     0
102
RTVSPost2010PropOp34
 70
     1
102
RTVSPost2010Prop35
280
     0
102
RTVSPost2010PropOp35
 70
     1
102
RTVSPost2010Prop36
280
     0
102
RTVSPost2010PropOp36
 70
     1
102
RTVSPost2010Prop37
 90
       50
102
RTVSPost2010PropOp37
 70
     1
102
RTVSPost2010Prop38
140
0.0
102
RTVSPost2010PropOp38
 70
     1
102
RTVSPost2010Prop39
140
1.0
102
RTVSPost2010PropOp39
 70
     1
102
RTVSPost2010Prop40
 90
        0
102
RTVSPost2010PropOp40
 70
     1
102
RTVSPost2010Prop41ColorIndex
 90
       18
102
RTVSPost2010Prop41ColorRGB
 90
        0
102
RTVSPost2010PropOp41
 70
     1
102
RTVSPost2010Prop42
 90
       50
102
RTVSPost2010PropOp42
 70
     1
102
RTVSPost2010Prop43
 90
        3
102
RTVSPost2010PropOp43
 70
     1
102
RTVSPost2010Prop44ColorIndex
 90
        5
102
RTVSPost2010Prop44ColorRGB
 90
      255
102
RTVSPost2010PropOp44
 70
     1
102
RTVSPost2010Prop45
280
     0
102
RTVSPost2010PropOp45
 70
     1
102
RTVSPost2010Prop46
 90
       50
102
RTVSPost2010PropOp46
 70
     1
102
RTVSPost2010Prop47
 90
       50
102
RTVSPost2010PropOp47
 70
     1
102
RTVSPost2010Prop48
 90
       50
102
RTVSPost2010PropOp48
 70
     1
102
RTVSPost2010Prop49
280
     0
102
RTVSPost2010PropOp49
 70
     1
102
RTVSPost2010Prop50
 90
       50
102
RTVSPost2010PropOp50
 70
     1
102
RTVSPost2010Prop51ColorIndex
 90
      256
102
RTVSPost2010Prop51ColorRGB
 90
-16777216
102
RTVSPost2010PropOp51
 70
     0
102
RTVSPost2010Prop52
140
1.0
102
RTVSPost2010PropOp52
 70
     0
102
RTVSPost2010Prop53
 90
        2
102
RTVSPost2010PropOp53
 70
     1
102
RTVSPost2010Prop54
  1
strokes_ogs.tif
102
RTVSPost2010PropOp54
 70
     1
102
RTVSPost2010Prop55
280
     0
102
RTVSPost2010PropOp55
 70
     1
102
RTVSPost2010Prop56
140
1.0
102
RTVSPost2010PropOp56
 70
     1
102
RTVSPost2010Prop57
140
1.0
102
RTVSPost2010PropOp57
 70
     1
  0
XRECORD
  5
B4
102
{ACAD_REACTORS
330
B3
102
}
330
B3
100
AcDbXrecord
280
     1
102
RTVSPropertyOp0
 70
     0
102
RTVSPropertyOp1
 70
     0
102
RTVSPropertyOp2
 70
     0
102
RTVSPropertyOp3
 70
     0
102
RTVSPropertyOp4
 70
     0
102
RTVSPropertyOp5
 70
     0
102
RTVSPropertyOp6
 70
     0
102
RTVSPropertyOp7
 70
     0
102
RTVSPropertyOp8
 70
     0
102
RTVSPropertyOp9
 70
     0
102
RTVSPropertyOp10
 70
     0
102
RTVSPropertyOp11
 70
     0
102
RTVSPropertyOp12
 70
     0
102
RTVSPropertyOp13
 70
     0
102
RTVSPropertyOp14
 70
     2
102
RTVSPropertyOp15
 70
     0
102
RTVSPropertyOp16
 70
     0
102
RTVSPropertyOp17
 70
     0
102
RTVSPropertyOp18
 70
     0
102
RTVSPropertyOp19
 70
     0
102
RTVSPropertyOp20
 70
     0
102
RTVSPropertyOp21
 70
     0
102
RTVSPropertyOp22
 70
     0
102
RTVSPropertyOp23
 70
     0
102
RTVSPropertyOp24
 70
     0
102
RTVSPropertyOp25
 70
     0
102
RTVSPropertyOp26
 70
     0
102
RTVSPropertyOp27
 70
     0
102
RTVSPropertyOp28
 70
     0
102
RTVSPropertyOp29
 70
     0
102
RTVSPropertyOp30
 70
     0
102
RTVSPropertyOp31
 70
     0
102
RTVSPropertyOp32
 70
     0
102
RTVSPropertyOp33
 70
     0
102
RTVSPropertyOp34
 70
     0
102
RTVSPropertyOp35
 70
     0
102
RTVSPropertyOp36
 70
     0
102
RTVSPropertyOp37
 70
     0
102
RTVSPropertyOp38
 70
     0
102
RTVSPropertyOp39
 70
     0
102
RTVSPropertyOp40
 70
     0
102
RTVSPropertyOp41
 70
     0
102
RTVSPropertyOp42
 70
     0
102
RTVSPropertyOp43
 70
     0
102
RTVSPropertyOp44
 70
     0
102
RTVSPropertyOp45
 70
     0
102
RTVSPropertyOp46
 70
     0
102
RTVSPropertyOp47
 70
     0
102
RTVSPropertyOp48
 70
     0
102
RTVSPropertyOp49
 70
     0
102
RTVSPropertyOp50
 70
     0
102
RTVSPropertyOp51
 70
     0
102
RTVSPropertyOp52
 70
     0
102
RTVSPropertyOp53
 70
     0
102
RTVSPropertyOp54
 70
     0
102
RTVSPropertyOp55
 70
     0
102
RTVSPropertyOp56
 70
     0
102
RTVSPropertyOp57
 70
     0
102
RTVSPost2010Prop28
280
     0
102
RTVSPost2010PropOp28
 70
     0
102
RTVSPost2010Prop29
280
     1
102
RTVSPost2010PropOp29
 70
     0
102
RTVSPost2010Prop30
280
     1
102
RTVSPost2010PropOp30
 70
     0
102
RTVSPost2010Prop31
280
     0
102
RTVSPost2010PropOp31
 70
     0
102
RTVSPost2010Prop32
280
     0
102
RTVSPost2010PropOp32
 70
     0
102
RTVSPost2010Prop33
280
     0
102
RTVSPost2010PropOp33
 70
     0
102
RTVSPost2010Prop34
280
     0
102
RTVSPost2010PropOp34
 70
     0
102
RTVSPost2010Prop35
280
     0
102
RTVSPost2010PropOp35
 70
     0
102
RTVSPost2010Prop36
280
     0
102
RTVSPost2010PropOp36
 70
     0
102
RTVSPost2010Prop37
 90
       50
102
RTVSPost2010PropOp37
 70
     0
102
RTVSPost2010Prop38
140
0.0
102
RTVSPost2010PropOp38
 70
     0
102
RTVSPost2010Prop39
140
1.0
102
RTVSPost2010PropOp39
 70
     0
102
RTVSPost2010Prop40
 90
        0
102
RTVSPost2010PropOp40
 70
     0
102
RTVSPost2010Prop41ColorIndex
 90
       18
102
RTVSPost2010Prop41ColorRGB
 90
        0
102
RTVSPost2010PropOp41
 70
     0
102
RTVSPost2010Prop42
 90
       50
102
RTVSPost2010PropOp42
 70
     0
102
RTVSPost2010Prop43
 90
        3
102
RTVSPost2010PropOp43
 70
     0
102
RTVSPost2010Prop44ColorIndex
 90
        5
102
RTVSPost2010Prop44ColorRGB
 90
      255
102
RTVSPost2010PropOp44
 70
     0
102
RTVSPost2010Prop45
280
     0
102
RTVSPost2010PropOp45
 70
     0
102
RTVSPost2010Prop46
 90
       50
102
RTVSPost2010PropOp46
 70
     0
102
RTVSPost2010Prop47
 90
       50
102
RTVSPost2010PropOp47
 70
     0
102
RTVSPost2010Prop48
 90
       50
102
RTVSPost2010PropOp48
 70
     0
102
RTVSPost2010Prop49
280
     0
102
RTVSPost2010PropOp49
 70
     0
102
RTVSPost2010Prop50
 90
       50
102
RTVSPost2010PropOp50
 70
     0
102
RTVSPost2010Prop51ColorIndex
 90
      256
102
RTVSPost2010Prop51ColorRGB
 90
-16777216
102
RTVSPost2010PropOp51
 70
     0
102
RTVSPost2010Prop52
140
1.0
102
RTVSPost2010PropOp52
 70
     0
102
RTVSPost2010Prop53
 90
        2
102
RTVSPost2010PropOp53
 70
     0
102
RTVSPost2010Prop54
  1
strokes_ogs.tif
102
RTVSPost2010PropOp54
 70
     0
102
RTVSPost2010Prop55
280
     0
102
RTVSPost2010PropOp55
 70
     0
102
RTVSPost2010Prop56
140
1.0
102
RTVSPost2010PropOp56
 70
     0
102
RTVSPost2010Prop57
140
1.0
102
RTVSPost2010PropOp57
 70
     0
  0
XRECORD
  5
A2
102
{ACAD_REACTORS
330
A1
102
}
330
A1
100
AcDbXrecord
280
     1
102
RTVSPropertyOp0
 70
     1
102
RTVSPropertyOp1
 70
     1
102
RTVSPropertyOp2
 70
     1
102
RTVSPropertyOp3
 70
     1
102
RTVSPropertyOp4
 70
     1
102
RTVSPropertyOp5
 70
     1
102
RTVSPropertyOp6
 70
     1
102
RTVSPropertyOp7
 70
     1
102
RTVSPropertyOp8
 70
     1
102
RTVSPropertyOp9
 70
     1
102
RTVSPropertyOp10
 70
     1
102
RTVSPropertyOp11
 70
     1
102
RTVSPropertyOp12
 70
     1
102
RTVSPropertyOp13
 70
     1
102
RTVSPropertyOp14
 70
     1
102
RTVSPropertyOp15
 70
     1
102
RTVSPropertyOp16
 70
     1
102
RTVSPropertyOp17
 70
     1
102
RTVSPropertyOp18
 70
     1
102
RTVSPropertyOp19
 70
     1
102
RTVSPropertyOp20
 70
     1
102
RTVSPropertyOp21
 70
     1
102
RTVSPropertyOp22
 70
     1
102
RTVSPropertyOp23
 70
     1
102
RTVSPropertyOp24
 70
     1
102
RTVSPropertyOp25
 70
     1
102
RTVSPropertyOp26
 70
     1
102
RTVSPropertyOp27
 70
     1
102
RTVSPropertyOp28
 70
     1
102
RTVSPropertyOp29
 70
     1
102
RTVSPropertyOp30
 70
     1
102
RTVSPropertyOp31
 70
     1
102
RTVSPropertyOp32
 70
     1
102
RTVSPropertyOp33
 70
     1
102
RTVSPropertyOp34
 70
     1
102
RTVSPropertyOp35
 70
     1
102
RTVSPropertyOp36
 70
     1
102
RTVSPropertyOp37
 70
     1
102
RTVSPropertyOp38
 70
     1
102
RTVSPropertyOp39
 70
     1
102
RTVSPropertyOp40
 70
     1
102
RTVSPropertyOp41
 70
     1
102
RTVSPropertyOp42
 70
     1
102
RTVSPropertyOp43
 70
     1
102
RTVSPropertyOp44
 70
     1
102
RTVSPropertyOp45
 70
     1
102
RTVSPropertyOp46
 70
     1
102
RTVSPropertyOp47
 70
     1
102
RTVSPropertyOp48
 70
     1
102
RTVSPropertyOp49
 70
     1
102
RTVSPropertyOp50
 70
     1
102
RTVSPropertyOp51
 70
     0
102
RTVSPropertyOp52
 70
     0
102
RTVSPropertyOp53
 70
     1
102
RTVSPropertyOp54
 70
     1
102
RTVSPropertyOp55
 70
     1
102
RTVSPropertyOp56
 70
     1
102
RTVSPropertyOp57
 70
     1
102
RTVSPost2010Prop28
280
     0
102
RTVSPost2010PropOp28
 70
     1
102
RTVSPost2010Prop29
280
     1
102
RTVSPost2010PropOp29
 70
     1
102
RTVSPost2010Prop30
280
     1
102
RTVSPost2010PropOp30
 70
     1
102
RTVSPost2010Prop31
280
     0
102
RTVSPost2010PropOp31
 70
     1
102
RTVSPost2010Prop32
280
     0
102
RTVSPost2010PropOp32
 70
     1
102
RTVSPost2010Prop33
280
     0
102
RTVSPost2010PropOp33
 70
     1
102
RTVSPost2010Prop34
280
     0
102
RTVSPost2010PropOp34
 70
     1
102
RTVSPost2010Prop35
280
     0
102
RTVSPost2010PropOp35
 70
     1
102
RTVSPost2010Prop36
280
     0
102
RTVSPost2010PropOp36
 70
     1
102
RTVSPost2010Prop37
 90
       50
102
RTVSPost2010PropOp37
 70
     1
102
RTVSPost2010Prop38
140
0.0
102
RTVSPost2010PropOp38
 70
     1
102
RTVSPost2010Prop39
140
1.0
102
RTVSPost2010PropOp39
 70
     1
102
RTVSPost2010Prop40
 90
        0
102
RTVSPost2010PropOp40
 70
     1
102
RTVSPost2010Prop41ColorIndex
 90
       18
102
RTVSPost2010Prop41ColorRGB
 90
        0
102
RTVSPost2010PropOp41
 70
     1
102
RTVSPost2010Prop42
 90
       50
102
RTVSPost2010PropOp42
 70
     1
102
RTVSPost2010Prop43
 90
        3
102
RTVSPost2010PropOp43
 70
     1
102
RTVSPost2010Prop44ColorIndex
 90
        5
102
RTVSPost2010Prop44ColorRGB
 90
      255
102
RTVSPost2010PropOp44
 70
     1
102
RTVSPost2010Prop45
280
     0
102
RTVSPost2010PropOp45
 70
     1
102
RTVSPost2010Prop46
 90
       50
102
RTVSPost2010PropOp46
 70
     1
102
RTVSPost2010Prop47
 90
       50
102
RTVSPost2010PropOp47
 70
     1
102
RTVSPost2010Prop48
 90
       50
102
RTVSPost2010PropOp48
 70
     1
102
RTVSPost2010Prop49
280
     0
102
RTVSPost2010PropOp49
 70
     1
102
RTVSPost2010Prop50
 90
       50
102
RTVSPost2010PropOp50
 70
     1
102
RTVSPost2010Prop51ColorIndex
 90
      256
102
RTVSPost2010Prop51ColorRGB
 90
-16777216
102
RTVSPost2010PropOp51
 70
     0
102
RTVSPost2010Prop52
140
1.0
102
RTVSPost2010PropOp52
 70
     0
102
RTVSPost2010Prop53
 90
        2
102
RTVSPost2010PropOp53
 70
     1
102
RTVSPost2010Prop54
  1
strokes_ogs.tif
102
RTVSPost2010PropOp54
 70
     1
102
RTVSPost2010Prop55
280
     0
102
RTVSPost2010PropOp55
 70
     1
102
RTVSPost2010Prop56
140
1.0
102
RTVSPost2010PropOp56
 70
     1
102
RTVSPost2010Prop57
140
1.0
102
RTVSPost2010PropOp57
 70
     1
  0
XRECORD
  5
C0
102
{ACAD_REACTORS
330
BF
102
}
330
BF
100
AcDbXrecord
280
     1
102
RTVSPropertyOp0
 70
     1
102
RTVSPropertyOp1
 70
     1
102
RTVSPropertyOp2
 70
     1
102
RTVSPropertyOp3
 70
     1
102
RTVSPropertyOp4
 70
     1
102
RTVSPropertyOp5
 70
     1
102
RTVSPropertyOp6
 70
     1
102
RTVSPropertyOp7
 70
     1
102
RTVSPropertyOp8
 70
     1
102
RTVSPropertyOp9
 70
     1
102
RTVSPropertyOp10
 70
     1
102
RTVSPropertyOp11
 70
     1
102
RTVSPropertyOp12
 70
     1
102
RTVSPropertyOp13
 70
     1
102
RTVSPropertyOp14
 70
     1
102
RTVSPropertyOp15
 70
     1
102
RTVSPropertyOp16
 70
     1
102
RTVSPropertyOp17
 70
     1
102
RTVSPropertyOp18
 70
     1
102
RTVSPropertyOp19
 70
     1
102
RTVSPropertyOp20
 70
     1
102
RTVSPropertyOp21
 70
     1
102
RTVSPropertyOp22
 70
     1
102
RTVSPropertyOp23
 70
     1
102
RTVSPropertyOp24
 70
     1
102
RTVSPropertyOp25
 70
     1
102
RTVSPropertyOp26
 70
     1
102
RTVSPropertyOp27
 70
     1
102
RTVSPropertyOp28
 70
     1
102
RTVSPropertyOp29
 70
     1
102
RTVSPropertyOp30
 70
     1
102
RTVSPropertyOp31
 70
     1
102
RTVSPropertyOp32
 70
     1
102
RTVSPropertyOp33
 70
     1
102
RTVSPropertyOp34
 70
     1
102
RTVSPropertyOp35
 70
     1
102
RTVSPropertyOp36
 70
     1
102
RTVSPropertyOp37
 70
     1
102
RTVSPropertyOp38
 70
     1
102
RTVSPropertyOp39
 70
     1
102
RTVSPropertyOp40
 70
     1
102
RTVSPropertyOp41
 70
     1
102
RTVSPropertyOp42
 70
     1
102
RTVSPropertyOp43
 70
     1
102
RTVSPropertyOp44
 70
     1
102
RTVSPropertyOp45
 70
     1
102
RTVSPropertyOp46
 70
     1
102
RTVSPropertyOp47
 70
     1
102
RTVSPropertyOp48
 70
     1
102
RTVSPropertyOp49
 70
     1
102
RTVSPropertyOp50
 70
     1
102
RTVSPropertyOp51
 70
     0
102
RTVSPropertyOp52
 70
     0
102
RTVSPropertyOp53
 70
     1
102
RTVSPropertyOp54
 70
     1
102
RTVSPropertyOp55
 70
     1
102
RTVSPropertyOp56
 70
     1
102
RTVSPropertyOp57
 70
     1
102
RTVSPost2010Prop28
280
     0
102
RTVSPost2010PropOp28
 70
     1
102
RTVSPost2010Prop29
280
     1
102
RTVSPost2010PropOp29
 70
     1
102
RTVSPost2010Prop30
280
     1
102
RTVSPost2010PropOp30
 70
     1
102
RTVSPost2010Prop31
280
     0
102
RTVSPost2010PropOp31
 70
     1
102
RTVSPost2010Prop32
280
     0
102
RTVSPost2010PropOp32
 70
     1
102
RTVSPost2010Prop33
280
     0
102
RTVSPost2010PropOp33
 70
     1
102
RTVSPost2010Prop34
280
     0
102
RTVSPost2010PropOp34
 70
     1
102
RTVSPost2010Prop35
280
     0
102
RTVSPost2010PropOp35
 70
     1
102
RTVSPost2010Prop36
280
     0
102
RTVSPost2010PropOp36
 70
     1
102
RTVSPost2010Prop37
 90
       50
102
RTVSPost2010PropOp37
 70
     1
102
RTVSPost2010Prop38
140
0.0
102
RTVSPost2010PropOp38
 70
     1
102
RTVSPost2010Prop39
140
1.0
102
RTVSPost2010PropOp39
 70
     1
102
RTVSPost2010Prop40
 90
        0
102
RTVSPost2010PropOp40
 70
     1
102
RTVSPost2010Prop41ColorIndex
 90
       18
102
RTVSPost2010Prop41ColorRGB
 90
        0
102
RTVSPost2010PropOp41
 70
     1
102
RTVSPost2010Prop42
 90
       50
102
RTVSPost2010PropOp42
 70
     1
102
RTVSPost2010Prop43
 90
        3
102
RTVSPost2010PropOp43
 70
     1
102
RTVSPost2010Prop44ColorIndex
 90
        5
102
RTVSPost2010Prop44ColorRGB
 90
      255
102
RTVSPost2010PropOp44
 70
     1
102
RTVSPost2010Prop45
280
     0
102
RTVSPost2010PropOp45
 70
     1
102
RTVSPost2010Prop46
 90
       50
102
RTVSPost2010PropOp46
 70
     1
102
RTVSPost2010Prop47
 90
       50
102
RTVSPost2010PropOp47
 70
     1
102
RTVSPost2010Prop48
 90
       50
102
RTVSPost2010PropOp48
 70
     1
102
RTVSPost2010Prop49
280
     0
102
RTVSPost2010PropOp49
 70
     1
102
RTVSPost2010Prop50
 90
       50
102
RTVSPost2010PropOp50
 70
     1
102
RTVSPost2010Prop51ColorIndex
 90
      256
102
RTVSPost2010Prop51ColorRGB
 90
-16777216
102
RTVSPost2010PropOp51
 70
     0
102
RTVSPost2010Prop52
140
1.0
102
RTVSPost2010PropOp52
 70
     0
102
RTVSPost2010Prop53
 90
        2
102
RTVSPost2010PropOp53
 70
     1
102
RTVSPost2010Prop54
  1
strokes_ogs.tif
102
RTVSPost2010PropOp54
 70
     1
102
RTVSPost2010Prop55
280
     0
102
RTVSPost2010PropOp55
 70
     1
102
RTVSPost2010Prop56
140
1.0
102
RTVSPost2010PropOp56
 70
     1
102
RTVSPost2010Prop57
140
1.0
102
RTVSPost2010PropOp57
 70
     1
  0
XRECORD
  5
BE
102
{ACAD_REACTORS
330
BD
102
}
330
BD
100
AcDbXrecord
280
     1
102
RTVSPropertyOp0
 70
     1
102
RTVSPropertyOp1
 70
     1
102
RTVSPropertyOp2
 70
     1
102
RTVSPropertyOp3
 70
     1
102
RTVSPropertyOp4
 70
     1
102
RTVSPropertyOp5
 70
     1
102
RTVSPropertyOp6
 70
     1
102
RTVSPropertyOp7
 70
     1
102
RTVSPropertyOp8
 70
     1
102
RTVSPropertyOp9
 70
     1
102
RTVSPropertyOp10
 70
     1
102
RTVSPropertyOp11
 70
     1
102
RTVSPropertyOp12
 70
     1
102
RTVSPropertyOp13
 70
     1
102
RTVSPropertyOp14
 70
     1
102
RTVSPropertyOp15
 70
     1
102
RTVSPropertyOp16
 70
     1
102
RTVSPropertyOp17
 70
     1
102
RTVSPropertyOp18
 70
     1
102
RTVSPropertyOp19
 70
     1
102
RTVSPropertyOp20
 70
     1
102
RTVSPropertyOp21
 70
     1
102
RTVSPropertyOp22
 70
     1
102
RTVSPropertyOp23
 70
     1
102
RTVSPropertyOp24
 70
     1
102
RTVSPropertyOp25
 70
     1
102
RTVSPropertyOp26
 70
     1
102
RTVSPropertyOp27
 70
     1
102
RTVSPropertyOp28
 70
     1
102
RTVSPropertyOp29
 70
     1
102
RTVSPropertyOp30
 70
     1
102
RTVSPropertyOp31
 70
     1
102
RTVSPropertyOp32
 70
     1
102
RTVSPropertyOp33
 70
     1
102
RTVSPropertyOp34
 70
     1
102
RTVSPropertyOp35
 70
     1
102
RTVSPropertyOp36
 70
     1
102
RTVSPropertyOp37
 70
     1
102
RTVSPropertyOp38
 70
     1
102
RTVSPropertyOp39
 70
     1
102
RTVSPropertyOp40
 70
     1
102
RTVSPropertyOp41
 70
     1
102
RTVSPropertyOp42
 70
     1
102
RTVSPropertyOp43
 70
     1
102
RTVSPropertyOp44
 70
     1
102
RTVSPropertyOp45
 70
     1
102
RTVSPropertyOp46
 70
     1
102
RTVSPropertyOp47
 70
     1
102
RTVSPropertyOp48
 70
     1
102
RTVSPropertyOp49
 70
     1
102
RTVSPropertyOp50
 70
     1
102
RTVSPropertyOp51
 70
     0
102
RTVSPropertyOp52
 70
     0
102
RTVSPropertyOp53
 70
     1
102
RTVSPropertyOp54
 70
     1
102
RTVSPropertyOp55
 70
     1
102
RTVSPropertyOp56
 70
     1
102
RTVSPropertyOp57
 70
     1
102
RTVSPost2010Prop28
280
     0
102
RTVSPost2010PropOp28
 70
     1
102
RTVSPost2010Prop29
280
     1
102
RTVSPost2010PropOp29
 70
     1
102
RTVSPost2010Prop30
280
     1
102
RTVSPost2010PropOp30
 70
     1
102
RTVSPost2010Prop31
280
     0
102
RTVSPost2010PropOp31
 70
     1
102
RTVSPost2010Prop32
280
     0
102
RTVSPost2010PropOp32
 70
     1
102
RTVSPost2010Prop33
280
     0
102
RTVSPost2010PropOp33
 70
     1
102
RTVSPost2010Prop34
280
     0
102
RTVSPost2010PropOp34
 70
     1
102
RTVSPost2010Prop35
280
     0
102
RTVSPost2010PropOp35
 70
     1
102
RTVSPost2010Prop36
280
     0
102
RTVSPost2010PropOp36
 70
     1
102
RTVSPost2010Prop37
 90
       50
102
RTVSPost2010PropOp37
 70
     1
102
RTVSPost2010Prop38
140
0.0
102
RTVSPost2010PropOp38
 70
     1
102
RTVSPost2010Prop39
140
1.0
102
RTVSPost2010PropOp39
 70
     1
102
RTVSPost2010Prop40
 90
        0
102
RTVSPost2010PropOp40
 70
     1
102
RTVSPost2010Prop41ColorIndex
 90
       18
102
RTVSPost2010Prop41ColorRGB
 90
        0
102
RTVSPost2010PropOp41
 70
     1
102
RTVSPost2010Prop42
 90
       50
102
RTVSPost2010PropOp42
 70
     1
102
RTVSPost2010Prop43
 90
        3
102
RTVSPost2010PropOp43
 70
     1
102
RTVSPost2010Prop44ColorIndex
 90
        5
102
RTVSPost2010Prop44ColorRGB
 90
      255
102
RTVSPost2010PropOp44
 70
     1
102
RTVSPost2010Prop45
280
     0
102
RTVSPost2010PropOp45
 70
     1
102
RTVSPost2010Prop46
 90
       50
102
RTVSPost2010PropOp46
 70
     1
102
RTVSPost2010Prop47
 90
       50
102
RTVSPost2010PropOp47
 70
     1
102
RTVSPost2010Prop48
 90
       50
102
RTVSPost2010PropOp48
 70
     1
102
RTVSPost2010Prop49
280
     0
102
RTVSPost2010PropOp49
 70
     1
102
RTVSPost2010Prop50
 90
       50
102
RTVSPost2010PropOp50
 70
     1
102
RTVSPost2010Prop51ColorIndex
 90
      256
102
RTVSPost2010Prop51ColorRGB
 90
-16777216
102
RTVSPost2010PropOp51
 70
     0
102
RTVSPost2010Prop52
140
1.0
102
RTVSPost2010PropOp52
 70
     0
102
RTVSPost2010Prop53
 90
        2
102
RTVSPost2010PropOp53
 70
     1
102
RTVSPost2010Prop54
  1
strokes_ogs.tif
102
RTVSPost2010PropOp54
 70
     1
102
RTVSPost2010Prop55
280
     0
102
RTVSPost2010PropOp55
 70
     1
102
RTVSPost2010Prop56
140
1.0
102
RTVSPost2010PropOp56
 70
     1
102
RTVSPost2010Prop57
140
1.0
102
RTVSPost2010PropOp57
 70
     1
  0
XRECORD
  5
B8
102
{ACAD_REACTORS
330
B7
102
}
330
B7
100
AcDbXrecord
280
     1
102
RTVSPropertyOp0
 70
     1
102
RTVSPropertyOp1
 70
     1
102
RTVSPropertyOp2
 70
     1
102
RTVSPropertyOp3
 70
     1
102
RTVSPropertyOp4
 70
     1
102
RTVSPropertyOp5
 70
     1
102
RTVSPropertyOp6
 70
     1
102
RTVSPropertyOp7
 70
     1
102
RTVSPropertyOp8
 70
     1
102
RTVSPropertyOp9
 70
     1
102
RTVSPropertyOp10
 70
     1
102
RTVSPropertyOp11
 70
     1
102
RTVSPropertyOp12
 70
     1
102
RTVSPropertyOp13
 70
     1
102
RTVSPropertyOp14
 70
     1
102
RTVSPropertyOp15
 70
     1
102
RTVSPropertyOp16
 70
     1
102
RTVSPropertyOp17
 70
     1
102
RTVSPropertyOp18
 70
     1
102
RTVSPropertyOp19
 70
     1
102
RTVSPropertyOp20
 70
     1
102
RTVSPropertyOp21
 70
     1
102
RTVSPropertyOp22
 70
     1
102
RTVSPropertyOp23
 70
     1
102
RTVSPropertyOp24
 70
     1
102
RTVSPropertyOp25
 70
     1
102
RTVSPropertyOp26
 70
     1
102
RTVSPropertyOp27
 70
     1
102
RTVSPropertyOp28
 70
     1
102
RTVSPropertyOp29
 70
     1
102
RTVSPropertyOp30
 70
     1
102
RTVSPropertyOp31
 70
     1
102
RTVSPropertyOp32
 70
     1
102
RTVSPropertyOp33
 70
     1
102
RTVSPropertyOp34
 70
     1
102
RTVSPropertyOp35
 70
     1
102
RTVSPropertyOp36
 70
     1
102
RTVSPropertyOp37
 70
     1
102
RTVSPropertyOp38
 70
     1
102
RTVSPropertyOp39
 70
     1
102
RTVSPropertyOp40
 70
     1
102
RTVSPropertyOp41
 70
     1
102
RTVSPropertyOp42
 70
     1
102
RTVSPropertyOp43
 70
     1
102
RTVSPropertyOp44
 70
     1
102
RTVSPropertyOp45
 70
     1
102
RTVSPropertyOp46
 70
     1
102
RTVSPropertyOp47
 70
     1
102
RTVSPropertyOp48
 70
     1
102
RTVSPropertyOp49
 70
     1
102
RTVSPropertyOp50
 70
     1
102
RTVSPropertyOp51
 70
     0
102
RTVSPropertyOp52
 70
     0
102
RTVSPropertyOp53
 70
     1
102
RTVSPropertyOp54
 70
     1
102
RTVSPropertyOp55
 70
     1
102
RTVSPropertyOp56
 70
     1
102
RTVSPropertyOp57
 70
     1
102
RTVSPost2010Prop28
280
     0
102
RTVSPost2010PropOp28
 70
     1
102
RTVSPost2010Prop29
280
     1
102
RTVSPost2010PropOp29
 70
     1
102
RTVSPost2010Prop30
280
     1
102
RTVSPost2010PropOp30
 70
     1
102
RTVSPost2010Prop31
280
     0
102
RTVSPost2010PropOp31
 70
     1
102
RTVSPost2010Prop32
280
     0
102
RTVSPost2010PropOp32
 70
     1
102
RTVSPost2010Prop33
280
     0
102
RTVSPost2010PropOp33
 70
     1
102
RTVSPost2010Prop34
280
     0
102
RTVSPost2010PropOp34
 70
     1
102
RTVSPost2010Prop35
280
     0
102
RTVSPost2010PropOp35
 70
     1
102
RTVSPost2010Prop36
280
     0
102
RTVSPost2010PropOp36
 70
     1
102
RTVSPost2010Prop37
 90
       50
102
RTVSPost2010PropOp37
 70
     1
102
RTVSPost2010Prop38
140
0.0
102
RTVSPost2010PropOp38
 70
     1
102
RTVSPost2010Prop39
140
1.0
102
RTVSPost2010PropOp39
 70
     1
102
RTVSPost2010Prop40
 90
        0
102
RTVSPost2010PropOp40
 70
     1
102
RTVSPost2010Prop41ColorIndex
 90
       18
102
RTVSPost2010Prop41ColorRGB
 90
        0
102
RTVSPost2010PropOp41
 70
     1
102
RTVSPost2010Prop42
 90
       50
102
RTVSPost2010PropOp42
 70
     1
102
RTVSPost2010Prop43
 90
        3
102
RTVSPost2010PropOp43
 70
     1
102
RTVSPost2010Prop44ColorIndex
 90
        5
102
RTVSPost2010Prop44ColorRGB
 90
      255
102
RTVSPost2010PropOp44
 70
     1
102
RTVSPost2010Prop45
280
     0
102
RTVSPost2010PropOp45
 70
     1
102
RTVSPost2010Prop46
 90
       50
102
RTVSPost2010PropOp46
 70
     1
102
RTVSPost2010Prop47
 90
       50
102
RTVSPost2010PropOp47
 70
     1
102
RTVSPost2010Prop48
 90
       50
102
RTVSPost2010PropOp48
 70
     1
102
RTVSPost2010Prop49
280
     0
102
RTVSPost2010PropOp49
 70
     1
102
RTVSPost2010Prop50
 90
       50
102
RTVSPost2010PropOp50
 70
     1
102
RTVSPost2010Prop51ColorIndex
 90
      256
102
RTVSPost2010Prop51ColorRGB
 90
-16777216
102
RTVSPost2010PropOp51
 70
     0
102
RTVSPost2010Prop52
140
1.0
102
RTVSPost2010PropOp52
 70
     0
102
RTVSPost2010Prop53
 90
        2
102
RTVSPost2010PropOp53
 70
     1
102
RTVSPost2010Prop54
  1
strokes_ogs.tif
102
RTVSPost2010PropOp54
 70
     1
102
RTVSPost2010Prop55
280
     0
102
RTVSPost2010PropOp55
 70
     1
102
RTVSPost2010Prop56
140
1.0
102
RTVSPost2010PropOp56
 70
     1
102
RTVSPost2010Prop57
140
1.0
102
RTVSPost2010PropOp57
 70
     1
  0
XRECORD
  5
BA
102
{ACAD_REACTORS
330
B9
102
}
330
B9
100
AcDbXrecord
280
     1
102
RTVSPropertyOp0
 70
     1
102
RTVSPropertyOp1
 70
     1
102
RTVSPropertyOp2
 70
     1
102
RTVSPropertyOp3
 70
     1
102
RTVSPropertyOp4
 70
     1
102
RTVSPropertyOp5
 70
     1
102
RTVSPropertyOp6
 70
     1
102
RTVSPropertyOp7
 70
     1
102
RTVSPropertyOp8
 70
     1
102
RTVSPropertyOp9
 70
     1
102
RTVSPropertyOp10
 70
     1
102
RTVSPropertyOp11
 70
     1
102
RTVSPropertyOp12
 70
     1
102
RTVSPropertyOp13
 70
     1
102
RTVSPropertyOp14
 70
     1
102
RTVSPropertyOp15
 70
     1
102
RTVSPropertyOp16
 70
     1
102
RTVSPropertyOp17
 70
     1
102
RTVSPropertyOp18
 70
     1
102
RTVSPropertyOp19
 70
     1
102
RTVSPropertyOp20
 70
     1
102
RTVSPropertyOp21
 70
     1
102
RTVSPropertyOp22
 70
     1
102
RTVSPropertyOp23
 70
     1
102
RTVSPropertyOp24
 70
     1
102
RTVSPropertyOp25
 70
     1
102
RTVSPropertyOp26
 70
     1
102
RTVSPropertyOp27
 70
     1
102
RTVSPropertyOp28
 70
     1
102
RTVSPropertyOp29
 70
     1
102
RTVSPropertyOp30
 70
     1
102
RTVSPropertyOp31
 70
     1
102
RTVSPropertyOp32
 70
     1
102
RTVSPropertyOp33
 70
     1
102
RTVSPropertyOp34
 70
     1
102
RTVSPropertyOp35
 70
     1
102
RTVSPropertyOp36
 70
     1
102
RTVSPropertyOp37
 70
     1
102
RTVSPropertyOp38
 70
     1
102
RTVSPropertyOp39
 70
     1
102
RTVSPropertyOp40
 70
     1
102
RTVSPropertyOp41
 70
     1
102
RTVSPropertyOp42
 70
     1
102
RTVSPropertyOp43
 70
     1
102
RTVSPropertyOp44
 70
     1
102
RTVSPropertyOp45
 70
     1
102
RTVSPropertyOp46
 70
     1
102
RTVSPropertyOp47
 70
     1
102
RTVSPropertyOp48
 70
     1
102
RTVSPropertyOp49
 70
     1
102
RTVSPropertyOp50
 70
     1
102
RTVSPropertyOp51
 70
     0
102
RTVSPropertyOp52
 70
     0
102
RTVSPropertyOp53
 70
     1
102
RTVSPropertyOp54
 70
     1
102
RTVSPropertyOp55
 70
     1
102
RTVSPropertyOp56
 70
     1
102
RTVSPropertyOp57
 70
     1
102
RTVSPost2010Prop28
280
     0
102
RTVSPost2010PropOp28
 70
     1
102
RTVSPost2010Prop29
280
     1
102
RTVSPost2010PropOp29
 70
     1
102
RTVSPost2010Prop30
280
     1
102
RTVSPost2010PropOp30
 70
     1
102
RTVSPost2010Prop31
280
     0
102
RTVSPost2010PropOp31
 70
     1
102
RTVSPost2010Prop32
280
     0
102
RTVSPost2010PropOp32
 70
     1
102
RTVSPost2010Prop33
280
     0
102
RTVSPost2010PropOp33
 70
     1
102
RTVSPost2010Prop34
280
     0
102
RTVSPost2010PropOp34
 70
     1
102
RTVSPost2010Prop35
280
     0
102
RTVSPost2010PropOp35
 70
     1
102
RTVSPost2010Prop36
280
     0
102
RTVSPost2010PropOp36
 70
     1
102
RTVSPost2010Prop37
 90
       50
102
RTVSPost2010PropOp37
 70
     1
102
RTVSPost2010Prop38
140
0.0
102
RTVSPost2010PropOp38
 70
     1
102
RTVSPost2010Prop39
140
1.0
102
RTVSPost2010PropOp39
 70
     1
102
RTVSPost2010Prop40
 90
        0
102
RTVSPost2010PropOp40
 70
     1
102
RTVSPost2010Prop41ColorIndex
 90
       18
102
RTVSPost2010Prop41ColorRGB
 90
        0
102
RTVSPost2010PropOp41
 70
     1
102
RTVSPost2010Prop42
 90
       50
102
RTVSPost2010PropOp42
 70
     1
102
RTVSPost2010Prop43
 90
        3
102
RTVSPost2010PropOp43
 70
     1
102
RTVSPost2010Prop44ColorIndex
 90
        5
102
RTVSPost2010Prop44ColorRGB
 90
      255
102
RTVSPost2010PropOp44
 70
     1
102
RTVSPost2010Prop45
280
     0
102
RTVSPost2010PropOp45
 70
     1
102
RTVSPost2010Prop46
 90
       50
102
RTVSPost2010PropOp46
 70
     1
102
RTVSPost2010Prop47
 90
       50
102
RTVSPost2010PropOp47
 70
     1
102
RTVSPost2010Prop48
 90
       50
102
RTVSPost2010PropOp48
 70
     1
102
RTVSPost2010Prop49
280
     0
102
RTVSPost2010PropOp49
 70
     1
102
RTVSPost2010Prop50
 90
       50
102
RTVSPost2010PropOp50
 70
     1
102
RTVSPost2010Prop51ColorIndex
 90
      256
102
RTVSPost2010Prop51ColorRGB
 90
-16777216
102
RTVSPost2010PropOp51
 70
     0
102
RTVSPost2010Prop52
140
1.0
102
RTVSPost2010PropOp52
 70
     0
102
RTVSPost2010Prop53
 90
        2
102
RTVSPost2010PropOp53
 70
     1
102
RTVSPost2010Prop54
  1
strokes_ogs.tif
102
RTVSPost2010PropOp54
 70
     1
102
RTVSPost2010Prop55
280
     0
102
RTVSPost2010PropOp55
 70
     1
102
RTVSPost2010Prop56
140
1.0
102
RTVSPost2010PropOp56
 70
     1
102
RTVSPost2010Prop57
140
1.0
102
RTVSPost2010PropOp57
 70
     1
  0
XRECORD
  5
AA
102
{ACAD_REACTORS
330
A9
102
}
330
A9
100
AcDbXrecord
280
     1
102
RTVSPropertyOp0
 70
     1
102
RTVSPropertyOp1
 70
     1
102
RTVSPropertyOp2
 70
     1
102
RTVSPropertyOp3
 70
     1
102
RTVSPropertyOp4
 70
     1
102
RTVSPropertyOp5
 70
     1
102
RTVSPropertyOp6
 70
     1
102
RTVSPropertyOp7
 70
     1
102
RTVSPropertyOp8
 70
     1
102
RTVSPropertyOp9
 70
     1
102
RTVSPropertyOp10
 70
     1
102
RTVSPropertyOp11
 70
     1
102
RTVSPropertyOp12
 70
     1
102
RTVSPropertyOp13
 70
     1
102
RTVSPropertyOp14
 70
     1
102
RTVSPropertyOp15
 70
     1
102
RTVSPropertyOp16
 70
     1
102
RTVSPropertyOp17
 70
     1
102
RTVSPropertyOp18
 70
     1
102
RTVSPropertyOp19
 70
     1
102
RTVSPropertyOp20
 70
     1
102
RTVSPropertyOp21
 70
     1
102
RTVSPropertyOp22
 70
     1
102
RTVSPropertyOp23
 70
     1
102
RTVSPropertyOp24
 70
     1
102
RTVSPropertyOp25
 70
     1
102
RTVSPropertyOp26
 70
     1
102
RTVSPropertyOp27
 70
     1
102
RTVSPropertyOp28
 70
     1
102
RTVSPropertyOp29
 70
     1
102
RTVSPropertyOp30
 70
     1
102
RTVSPropertyOp31
 70
     1
102
RTVSPropertyOp32
 70
     1
102
RTVSPropertyOp33
 70
     1
102
RTVSPropertyOp34
 70
     1
102
RTVSPropertyOp35
 70
     1
102
RTVSPropertyOp36
 70
     1
102
RTVSPropertyOp37
 70
     1
102
RTVSPropertyOp38
 70
     1
102
RTVSPropertyOp39
 70
     1
102
RTVSPropertyOp40
 70
     1
102
RTVSPropertyOp41
 70
     1
102
RTVSPropertyOp42
 70
     1
102
RTVSPropertyOp43
 70
     1
102
RTVSPropertyOp44
 70
     1
102
RTVSPropertyOp45
 70
     1
102
RTVSPropertyOp46
 70
     1
102
RTVSPropertyOp47
 70
     1
102
RTVSPropertyOp48
 70
     1
102
RTVSPropertyOp49
 70
     1
102
RTVSPropertyOp50
 70
     1
102
RTVSPropertyOp51
 70
     0
102
RTVSPropertyOp52
 70
     0
102
RTVSPropertyOp53
 70
     1
102
RTVSPropertyOp54
 70
     1
102
RTVSPropertyOp55
 70
     1
102
RTVSPropertyOp56
 70
     1
102
RTVSPropertyOp57
 70
     1
102
RTVSPost2010Prop28
280
     0
102
RTVSPost2010PropOp28
 70
     1
102
RTVSPost2010Prop29
280
     1
102
RTVSPost2010PropOp29
 70
     1
102
RTVSPost2010Prop30
280
     1
102
RTVSPost2010PropOp30
 70
     1
102
RTVSPost2010Prop31
280
     0
102
RTVSPost2010PropOp31
 70
     1
102
RTVSPost2010Prop32
280
     0
102
RTVSPost2010PropOp32
 70
     1
102
RTVSPost2010Prop33
280
     0
102
RTVSPost2010PropOp33
 70
     1
102
RTVSPost2010Prop34
280
     0
102
RTVSPost2010PropOp34
 70
     1
102
RTVSPost2010Prop35
280
     0
102
RTVSPost2010PropOp35
 70
     1
102
RTVSPost2010Prop36
280
     0
102
RTVSPost2010PropOp36
 70
     1
102
RTVSPost2010Prop37
 90
       50
102
RTVSPost2010PropOp37
 70
     1
102
RTVSPost2010Prop38
140
0.0
102
RTVSPost2010PropOp38
 70
     1
102
RTVSPost2010Prop39
140
1.0
102
RTVSPost2010PropOp39
 70
     1
102
RTVSPost2010Prop40
 90
        0
102
RTVSPost2010PropOp40
 70
     1
102
RTVSPost2010Prop41ColorIndex
 90
       18
102
RTVSPost2010Prop41ColorRGB
 90
        0
102
RTVSPost2010PropOp41
 70
     1
102
RTVSPost2010Prop42
 90
       50
102
RTVSPost2010PropOp42
 70
     1
102
RTVSPost2010Prop43
 90
        3
102
RTVSPost2010PropOp43
 70
     1
102
RTVSPost2010Prop44ColorIndex
 90
        5
102
RTVSPost2010Prop44ColorRGB
 90
      255
102
RTVSPost2010PropOp44
 70
     1
102
RTVSPost2010Prop45
280
     0
102
RTVSPost2010PropOp45
 70
     1
102
RTVSPost2010Prop46
 90
       50
102
RTVSPost2010PropOp46
 70
     1
102
RTVSPost2010Prop47
 90
       50
102
RTVSPost2010PropOp47
 70
     1
102
RTVSPost2010Prop48
 90
       50
102
RTVSPost2010PropOp48
 70
     1
102
RTVSPost2010Prop49
280
     0
102
RTVSPost2010PropOp49
 70
     1
102
RTVSPost2010Prop50
 90
       50
102
RTVSPost2010PropOp50
 70
     1
102
RTVSPost2010Prop51ColorIndex
 90
      256
102
RTVSPost2010Prop51ColorRGB
 90
-16777216
102
RTVSPost2010PropOp51
 70
     0
102
RTVSPost2010Prop52
140
1.0
102
RTVSPost2010PropOp52
 70
     0
102
RTVSPost2010Prop53
 90
        2
102
RTVSPost2010PropOp53
 70
     1
102
RTVSPost2010Prop54
  1
strokes_ogs.tif
102
RTVSPost2010PropOp54
 70
     1
102
RTVSPost2010Prop55
280
     0
102
RTVSPost2010PropOp55
 70
     1
102
RTVSPost2010Prop56
140
1.0
102
RTVSPost2010PropOp56
 70
     1
102
RTVSPost2010Prop57
140
1.0
102
RTVSPost2010PropOp57
 70
     1
  0
XRECORD
  5
9C
102
{ACAD_REACTORS
330
9B
102
}
330
9B
100
AcDbXrecord
280
     1
102
RTVSPropertyOp0
 70
     1
102
RTVSPropertyOp1
 70
     1
102
RTVSPropertyOp2
 70
     1
102
RTVSPropertyOp3
 70
     1
102
RTVSPropertyOp4
 70
     1
102
RTVSPropertyOp5
 70
     1
102
RTVSPropertyOp6
 70
     1
102
RTVSPropertyOp7
 70
     1
102
RTVSPropertyOp8
 70
     1
102
RTVSPropertyOp9
 70
     1
102
RTVSPropertyOp10
 70
     1
102
RTVSPropertyOp11
 70
     1
102
RTVSPropertyOp12
 70
     1
102
RTVSPropertyOp13
 70
     1
102
RTVSPropertyOp14
 70
     1
102
RTVSPropertyOp15
 70
     1
102
RTVSPropertyOp16
 70
     1
102
RTVSPropertyOp17
 70
     1
102
RTVSPropertyOp18
 70
     1
102
RTVSPropertyOp19
 70
     1
102
RTVSPropertyOp20
 70
     1
102
RTVSPropertyOp21
 70
     1
102
RTVSPropertyOp22
 70
     1
102
RTVSPropertyOp23
 70
     1
102
RTVSPropertyOp24
 70
     1
102
RTVSPropertyOp25
 70
     1
102
RTVSPropertyOp26
 70
     1
102
RTVSPropertyOp27
 70
     1
102
RTVSPropertyOp28
 70
     1
102
RTVSPropertyOp29
 70
     1
102
RTVSPropertyOp30
 70
     1
102
RTVSPropertyOp31
 70
     1
102
RTVSPropertyOp32
 70
     1
102
RTVSPropertyOp33
 70
     1
102
RTVSPropertyOp34
 70
     1
102
RTVSPropertyOp35
 70
     1
102
RTVSPropertyOp36
 70
     1
102
RTVSPropertyOp37
 70
     1
102
RTVSPropertyOp38
 70
     1
102
RTVSPropertyOp39
 70
     1
102
RTVSPropertyOp40
 70
     1
102
RTVSPropertyOp41
 70
     1
102
RTVSPropertyOp42
 70
     1
102
RTVSPropertyOp43
 70
     1
102
RTVSPropertyOp44
 70
     1
102
RTVSPropertyOp45
 70
     1
102
RTVSPropertyOp46
 70
     1
102
RTVSPropertyOp47
 70
     1
102
RTVSPropertyOp48
 70
     1
102
RTVSPropertyOp49
 70
     1
102
RTVSPropertyOp50
 70
     1
102
RTVSPropertyOp51
 70
     0
102
RTVSPropertyOp52
 70
     0
102
RTVSPropertyOp53
 70
     1
102
RTVSPropertyOp54
 70
     1
102
RTVSPropertyOp55
 70
     1
102
RTVSPropertyOp56
 70
     1
102
RTVSPropertyOp57
 70
     1
102
RTVSPost2010Prop28
280
     0
102
RTVSPost2010PropOp28
 70
     1
102
RTVSPost2010Prop29
280
     1
102
RTVSPost2010PropOp29
 70
     1
102
RTVSPost2010Prop30
280
     1
102
RTVSPost2010PropOp30
 70
     1
102
RTVSPost2010Prop31
280
     0
102
RTVSPost2010PropOp31
 70
     1
102
RTVSPost2010Prop32
280
     0
102
RTVSPost2010PropOp32
 70
     1
102
RTVSPost2010Prop33
280
     0
102
RTVSPost2010PropOp33
 70
     1
102
RTVSPost2010Prop34
280
     0
102
RTVSPost2010PropOp34
 70
     1
102
RTVSPost2010Prop35
280
     0
102
RTVSPost2010PropOp35
 70
     1
102
RTVSPost2010Prop36
280
     0
102
RTVSPost2010PropOp36
 70
     1
102
RTVSPost2010Prop37
 90
       50
102
RTVSPost2010PropOp37
 70
     1
102
RTVSPost2010Prop38
140
0.0
102
RTVSPost2010PropOp38
 70
     1
102
RTVSPost2010Prop39
140
1.0
102
RTVSPost2010PropOp39
 70
     1
102
RTVSPost2010Prop40
 90
        0
102
RTVSPost2010PropOp40
 70
     1
102
RTVSPost2010Prop41ColorIndex
 90
       18
102
RTVSPost2010Prop41ColorRGB
 90
        0
102
RTVSPost2010PropOp41
 70
     1
102
RTVSPost2010Prop42
 90
       50
102
RTVSPost2010PropOp42
 70
     1
102
RTVSPost2010Prop43
 90
        3
102
RTVSPost2010PropOp43
 70
     1
102
RTVSPost2010Prop44ColorIndex
 90
        5
102
RTVSPost2010Prop44ColorRGB
 90
      255
102
RTVSPost2010PropOp44
 70
     1
102
RTVSPost2010Prop45
280
     0
102
RTVSPost2010PropOp45
 70
     1
102
RTVSPost2010Prop46
 90
       50
102
RTVSPost2010PropOp46
 70
     1
102
RTVSPost2010Prop47
 90
       50
102
RTVSPost2010PropOp47
 70
     1
102
RTVSPost2010Prop48
 90
       50
102
RTVSPost2010PropOp48
 70
     1
102
RTVSPost2010Prop49
280
     0
102
RTVSPost2010PropOp49
 70
     1
102
RTVSPost2010Prop50
 90
       50
102
RTVSPost2010PropOp50
 70
     1
102
RTVSPost2010Prop51ColorIndex
 90
      256
102
RTVSPost2010Prop51ColorRGB
 90
-16777216
102
RTVSPost2010PropOp51
 70
     0
102
RTVSPost2010Prop52
140
1.0
102
RTVSPost2010PropOp52
 70
     0
102
RTVSPost2010Prop53
 90
        2
102
RTVSPost2010PropOp53
 70
     1
102
RTVSPost2010Prop54
  1
strokes_ogs.tif
102
RTVSPost2010PropOp54
 70
     1
102
RTVSPost2010Prop55
280
     0
102
RTVSPost2010PropOp55
 70
     1
102
RTVSPost2010Prop56
140
1.0
102
RTVSPost2010PropOp56
 70
     1
102
RTVSPost2010Prop57
140
1.0
102
RTVSPost2010PropOp57
 70
     1
  0
XRECORD
  5
BC
102
{ACAD_REACTORS
330
BB
102
}
330
BB
100
AcDbXrecord
280
     1
102
RTVSPropertyOp0
 70
     1
102
RTVSPropertyOp1
 70
     1
102
RTVSPropertyOp2
 70
     1
102
RTVSPropertyOp3
 70
     1
102
RTVSPropertyOp4
 70
     1
102
RTVSPropertyOp5
 70
     1
102
RTVSPropertyOp6
 70
     1
102
RTVSPropertyOp7
 70
     1
102
RTVSPropertyOp8
 70
     1
102
RTVSPropertyOp9
 70
     1
102
RTVSPropertyOp10
 70
     1
102
RTVSPropertyOp11
 70
     1
102
RTVSPropertyOp12
 70
     1
102
RTVSPropertyOp13
 70
     1
102
RTVSPropertyOp14
 70
     1
102
RTVSPropertyOp15
 70
     1
102
RTVSPropertyOp16
 70
     1
102
RTVSPropertyOp17
 70
     1
102
RTVSPropertyOp18
 70
     1
102
RTVSPropertyOp19
 70
     1
102
RTVSPropertyOp20
 70
     1
102
RTVSPropertyOp21
 70
     1
102
RTVSPropertyOp22
 70
     1
102
RTVSPropertyOp23
 70
     1
102
RTVSPropertyOp24
 70
     1
102
RTVSPropertyOp25
 70
     1
102
RTVSPropertyOp26
 70
     1
102
RTVSPropertyOp27
 70
     1
102
RTVSPropertyOp28
 70
     1
102
RTVSPropertyOp29
 70
     1
102
RTVSPropertyOp30
 70
     1
102
RTVSPropertyOp31
 70
     1
102
RTVSPropertyOp32
 70
     1
102
RTVSPropertyOp33
 70
     1
102
RTVSPropertyOp34
 70
     1
102
RTVSPropertyOp35
 70
     1
102
RTVSPropertyOp36
 70
     1
102
RTVSPropertyOp37
 70
     1
102
RTVSPropertyOp38
 70
     1
102
RTVSPropertyOp39
 70
     1
102
RTVSPropertyOp40
 70
     1
102
RTVSPropertyOp41
 70
     1
102
RTVSPropertyOp42
 70
     1
102
RTVSPropertyOp43
 70
     1
102
RTVSPropertyOp44
 70
     1
102
RTVSPropertyOp45
 70
     1
102
RTVSPropertyOp46
 70
     1
102
RTVSPropertyOp47
 70
     1
102
RTVSPropertyOp48
 70
     1
102
RTVSPropertyOp49
 70
     1
102
RTVSPropertyOp50
 70
     1
102
RTVSPropertyOp51
 70
     0
102
RTVSPropertyOp52
 70
     0
102
RTVSPropertyOp53
 70
     1
102
RTVSPropertyOp54
 70
     1
102
RTVSPropertyOp55
 70
     1
102
RTVSPropertyOp56
 70
     1
102
RTVSPropertyOp57
 70
     1
102
RTVSPost2010Prop28
280
     0
102
RTVSPost2010PropOp28
 70
     1
102
RTVSPost2010Prop29
280
     1
102
RTVSPost2010PropOp29
 70
     1
102
RTVSPost2010Prop30
280
     1
102
RTVSPost2010PropOp30
 70
     1
102
RTVSPost2010Prop31
280
     0
102
RTVSPost2010PropOp31
 70
     1
102
RTVSPost2010Prop32
280
     0
102
RTVSPost2010PropOp32
 70
     1
102
RTVSPost2010Prop33
280
     0
102
RTVSPost2010PropOp33
 70
     1
102
RTVSPost2010Prop34
280
     0
102
RTVSPost2010PropOp34
 70
     1
102
RTVSPost2010Prop35
280
     0
102
RTVSPost2010PropOp35
 70
     1
102
RTVSPost2010Prop36
280
     0
102
RTVSPost2010PropOp36
 70
     1
102
RTVSPost2010Prop37
 90
       50
102
RTVSPost2010PropOp37
 70
     1
102
RTVSPost2010Prop38
140
0.0
102
RTVSPost2010PropOp38
 70
     1
102
RTVSPost2010Prop39
140
1.0
102
RTVSPost2010PropOp39
 70
     1
102
RTVSPost2010Prop40
 90
        0
102
RTVSPost2010PropOp40
 70
     1
102
RTVSPost2010Prop41ColorIndex
 90
       18
102
RTVSPost2010Prop41ColorRGB
 90
        0
102
RTVSPost2010PropOp41
 70
     1
102
RTVSPost2010Prop42
 90
       50
102
RTVSPost2010PropOp42
 70
     1
102
RTVSPost2010Prop43
 90
        3
102
RTVSPost2010PropOp43
 70
     1
102
RTVSPost2010Prop44ColorIndex
 90
        5
102
RTVSPost2010Prop44ColorRGB
 90
      255
102
RTVSPost2010PropOp44
 70
     1
102
RTVSPost2010Prop45
280
     0
102
RTVSPost2010PropOp45
 70
     1
102
RTVSPost2010Prop46
 90
       50
102
RTVSPost2010PropOp46
 70
     1
102
RTVSPost2010Prop47
 90
       50
102
RTVSPost2010PropOp47
 70
     1
102
RTVSPost2010Prop48
 90
       50
102
RTVSPost2010PropOp48
 70
     1
102
RTVSPost2010Prop49
280
     0
102
RTVSPost2010PropOp49
 70
     1
102
RTVSPost2010Prop50
 90
       50
102
RTVSPost2010PropOp50
 70
     1
102
RTVSPost2010Prop51ColorIndex
 90
      256
102
RTVSPost2010Prop51ColorRGB
 90
-16777216
102
RTVSPost2010PropOp51
 70
     0
102
RTVSPost2010Prop52
140
1.0
102
RTVSPost2010PropOp52
 70
     0
102
RTVSPost2010Prop53
 90
        2
102
RTVSPost2010PropOp53
 70
     1
102
RTVSPost2010Prop54
  1
strokes_ogs.tif
102
RTVSPost2010PropOp54
 70
     1
102
RTVSPost2010Prop55
280
     0
102
RTVSPost2010PropOp55
 70
     1
102
RTVSPost2010Prop56
140
1.0
102
RTVSPost2010PropOp56
 70
     1
102
RTVSPost2010Prop57
140
1.0
102
RTVSPost2010PropOp57
 70
     1
  0
ENDSEC
  0
EOF
