  0
SECTION
  2
HEADER
  9
$ACADVER
  1
AC1014
  9
$HANDSEED
  5
FFFF
  9
$INSUNITS
 70
     4
  9
$MEASUREMENT
 70
     1
  0
ENDSEC
  0
SECTION
  2
TABLES
  0
TABLE
  2
VPORT
  5
8
330
0
100
AcDbSymbolTable
 70
     4
  0
VPORT
  5
2E
330
8
100
AcDbSymbolTableRecord
100
AcDbViewportTableRecord
  2
*ACTIVE
 70
     0
 10
0.0
 20
0.0
 11
1.0
 21
1.0
 12
210.0
 22
148.5
 13
0.0
 23
0.0
 14
10.0
 24
10.0
 15
10.0
 25
10.0
 16
0.0
 26
0.0
 36
1.0
 17
0.0
 27
0.0
 37
0.0
 40
341.0
 41
1.24
 42
50.0
 43
0.0
 44
0.0
 50
0.0
 51
0.0
 71
     0
 72
   100
 73
     1
 74
     3
 75
     0
 76
     0
 77
     0
 78
     0
  0
ENDTAB
  0
TABLE
  2
LTYPE
  5
5
330
0
100
AcDbSymbolTable
 70
     1
  0
LTYPE
  5
14
330
5
100
AcDbSymbolTableRecord
100
AcDbLinetypeTableRecord
  2
BYBLOCK
 70
     0
  3

 72
    65
 73
     0
 40
0.0
  0
LTYPE
  5
15
330
5
100
AcDbSymbolTableRecord
100
AcDbLinetypeTableRecord
  2
BYLAYER
 70
     0
  3

 72
    65
 73
     0
 40
0.0
  0
LTYPE
  5
16
330
5
100
AcDbSymbolTableRecord
100
AcDbLinetypeTableRecord
  2
CONTINUOUS
 70
     0
  3
Solid line
 72
    65
 73
     0
 40
0.0
  0
ENDTAB
  0
TABLE
  2
LAYER
  5
2
100
AcDbSymbolTable
 70
2
  0
LAYER
  5
50
100
AcDbSymbolTableRecord
100
AcDbLayerTableRecord
  2
0
 70
0
  6
CONTINUOUS
  0
LAYER
  5
51
100
AcDbSymbolTableRecord
100
AcDbLayerTableRecord
  2
Ebene_1
 70
0
  6
CONTINUOUS
  0
ENDTAB
  0
TABLE
  2
STYLE
  5
3
330
0
100
AcDbSymbolTable
 70
     1
  0
STYLE
  5
11
330
3
100
AcDbSymbolTableRecord
100
AcDbTextStyleTableRecord
  2
STANDARD
 70
     0
 40
0.0
 41
1.0
 50
0.0
 71
     0
 42
2.5
  3
txt
  4

  0
ENDTAB
  0
TABLE
  2
VIEW
  5
6
330
0
100
AcDbSymbolTable
 70
     0
  0
ENDTAB
  0
TABLE
  2
UCS
  5
7
330
0
100
AcDbSymbolTable
 70
     0
  0
ENDTAB
  0
TABLE
  2
APPID
  5
9
330
0
100
AcDbSymbolTable
 70
     2
  0
APPID
  5
12
330
9
100
AcDbSymbolTableRecord
100
AcDbRegAppTableRecord
  2
ACAD
 70
     0
  0
ENDTAB
  0
TABLE
  2
DIMSTYLE
  5
A
330
0
100
AcDbSymbolTable
 70
     1
  0
DIMSTYLE
105
27
330
A
100
AcDbSymbolTableRecord
100
AcDbDimStyleTableRecord
  2
ISO-25
 70
     0
  3

  4

  5

  6

  7

 40
1.0
 41
2.5
 42
0.625
 43
3.75
 44
1.25
 45
0.0
 46
0.0
 47
0.0
 48
0.0
140
2.5
141
2.5
142
0.0
143
0.03937007874016
144
1.0
145
0.0
146
1.0
147
0.625
 71
     0
 72
     0
 73
     0
 74
     0
 75
     0
 76
     0
 77
     1
 78
     8
170
     0
171
     3
172
     1
173
     0
174
     0
175
     0
176
     0
177
     0
178
     0
270
     2
271
     2
272
     2
273
     2
274
     3
340
11
275
     0
280
     0
281
     0
282
     0
283
     0
284
     8
285
     0
286
     0
287
     3
288
     0
  0
ENDTAB
  0
TABLE
  2
BLOCK_RECORD
  5
1
330
0
100
AcDbSymbolTable
 70
     1
  0
BLOCK_RECORD
  5
1F
330
1
100
AcDbSymbolTableRecord
100
AcDbBlockTableRecord
  2
*MODEL_SPACE
  0
BLOCK_RECORD
  5
1B
330
1
100
AcDbSymbolTableRecord
100
AcDbBlockTableRecord
  2
*PAPER_SPACE
  0
ENDTAB
  0
ENDSEC
  0
SECTION
  2
BLOCKS
  0
BLOCK
  5
20
330
1F
100
AcDbEntity
  8
0
100
AcDbBlockBegin
  2
*MODEL_SPACE
 70
     0
 10
0.0
 20
0.0
 30
0.0
  3
*MODEL_SPACE
  1

  0
ENDBLK
  5
21
330
1F
100
AcDbEntity
  8
0
100
AcDbBlockEnd
  0
BLOCK
  5
1C
330
1B
100
AcDbEntity
 67
     1
  8
0
100
AcDbBlockBegin
  2
*PAPER_SPACE
  1

  0
ENDBLK
  5
1D
330
1B
100
AcDbEntity
 67
     1
  8
0
100
AcDbBlockEnd
  0
ENDSEC
  0
SECTION
  2
ENTITIES
  0
SPLINE
  5
100
100
AcDbEntity
  8
Ebene_1
 62
1
100
AcDbSpline
 70
8
 71
3
 72
8
 73
4
 74
0
 40
0
 40
0
 40
0
 40
0
 40
1
 40
1
 40
1
 40
1
 10
134.779307
 20
1373.887730
 30
0.0
 10
149.193587
 20
1367.930910
 30
0.0
 10
156.416837
 20
1355.514060
 30
0.0
 10
156.730637
 20
1338.925510
 30
0.0
  0
SPLINE
  5
101
100
AcDbEntity
  8
Ebene_1
 62
1
100
AcDbSpline
 70
8
 71
3
 72
8
 73
4
 74
0
 40
0
 40
0
 40
0
 40
0
 40
1
 40
1
 40
1
 40
1
 10
156.730637
 20
1338.925510
 30
0.0
 10
156.730637
 20
1329.851510
 30
0.0
 10
152.274777
 20
1325.978160
 30
0.0
 10
145.425897
 20
1329.098710
 30
0.0
  0
SPLINE
  5
102
100
AcDbEntity
  8
Ebene_1
 62
1
100
AcDbSpline
 70
8
 71
3
 72
8
 73
4
 74
0
 40
0
 40
0
 40
0
 40
0
 40
1
 40
1
 40
1
 40
1
 10
145.425897
 20
1329.098710
 30
0.0
 10
140.746607
 20
1331.230740
 30
0.0
 10
140.375557
 20
1331.001790
 30
0.0
 10
140.375557
 20
1325.982630
 30
0.0
  0
SPLINE
  5
103
100
AcDbEntity
  8
Ebene_1
 62
1
100
AcDbSpline
 70
8
 71
3
 72
8
 73
4
 74
0
 40
0
 40
0
 40
0
 40
0
 40
1
 40
1
 40
1
 40
1
 10
140.375557
 20
1325.982630
 30
0.0
 10
140.375557
 20
1320.068900
 30
0.0
 10
135.223347
 20
1313.087810
 30
0.0
 10
130.858827
 20
1313.087810
 30
0.0
  0
SPLINE
  5
104
100
AcDbEntity
  8
Ebene_1
 62
1
100
AcDbSpline
 70
8
 71
3
 72
8
 73
4
 74
0
 40
0
 40
0
 40
0
 40
0
 40
1
 40
1
 40
1
 40
1
 10
130.858827
 20
1313.087810
 30
0.0
 10
128.664407
 20
1313.538260
 30
0.0
 10
120.782508
 20
1311.352040
 30
0.0
 10
123.049488
 20
1290.682970
 30
0.0
  0
SPLINE
  5
105
100
AcDbEntity
  8
Ebene_1
 62
1
100
AcDbSpline
 70
8
 71
3
 72
8
 73
4
 74
0
 40
0
 40
0
 40
0
 40
0
 40
1
 40
1
 40
1
 40
1
 10
123.049488
 20
1290.682970
 30
0.0
 10
122.475348
 20
1289.754020
 30
0.0
 10
122.004338
 20
1266.076370
 30
0.0
 10
120.011428
 20
1238.176100
 30
0.0
  0
SPLINE
  5
106
100
AcDbEntity
  8
Ebene_1
 62
1
100
AcDbSpline
 70
8
 71
3
 72
8
 73
4
 74
0
 40
0
 40
0
 40
0
 40
0
 40
1
 40
1
 40
1
 40
1
 10
120.011428
 20
1238.176100
 30
0.0
 10
117.515658
 20
1203.235890
 30
0.0
 10
116.501848
 20
1178.243210
 30
0.0
 10
114.109468
 20
1163.847300
 30
0.0
  0
SPLINE
  5
107
100
AcDbEntity
  8
Ebene_1
 62
1
100
AcDbSpline
 70
8
 71
3
 72
8
 73
4
 74
0
 40
0
 40
0
 40
0
 40
0
 40
1
 40
1
 40
1
 40
1
 10
114.109468
 20
1163.847300
 30
0.0
 10
111.960558
 20
1150.916540
 30
0.0
 10
109.579718
 20
1129.951300
 30
0.0
 10
108.818828
 20
1117.257900
 30
0.0
  0
SPLINE
  5
108
100
AcDbEntity
  8
Ebene_1
 62
1
100
AcDbSpline
 70
8
 71
3
 72
8
 73
4
 74
0
 40
0
 40
0
 40
0
 40
0
 40
1
 40
1
 40
1
 40
1
 10
108.818828
 20
1117.257900
 30
0.0
 10
107.457776
 20
1094.552400
 30
0.0
 10
107.520206
 20
1094.078790
 30
0.0
 10
112.661488
 20
1087.968730
 30
0.0
  0
SPLINE
  5
109
100
AcDbEntity
  8
Ebene_1
 62
1
100
AcDbSpline
 70
8
 71
3
 72
8
 73
4
 74
0
 40
0
 40
0
 40
0
 40
0
 40
1
 40
1
 40
1
 40
1
 10
112.661488
 20
1087.968730
 30
0.0
 10
119.355537
 20
1080.013310
 30
0.0
 10
119.258767
 20
1075.339970
 30
0.0
 10
112.265128
 20
1068.810210
 30
0.0
  0
SPLINE
  5
10a
100
AcDbEntity
  8
Ebene_1
 62
1
100
AcDbSpline
 70
8
 71
3
 72
8
 73
4
 74
0
 40
0
 40
0
 40
0
 40
0
 40
1
 40
1
 40
1
 40
1
 10
112.265128
 20
1068.810210
 30
0.0
 10
105.048306
 20
1062.072050
 30
0.0
 10
99.247206
 20
1062.919180
 30
0.0
 10
95.580876
 20
1071.246240
 30
0.0
  0
SPLINE
  5
10b
100
AcDbEntity
  8
Ebene_1
 62
1
100
AcDbSpline
 70
8
 71
3
 72
8
 73
4
 74
0
 40
0
 40
0
 40
0
 40
0
 40
1
 40
1
 40
1
 40
1
 10
95.580876
 20
1071.246240
 30
0.0
 10
93.994266
 20
1074.849770
 30
0.0
 10
91.391116
 20
1078.298880
 30
0.0
 10
89.796216
 20
1078.910890
 30
0.0
  0
SPLINE
  5
10c
100
AcDbEntity
  8
Ebene_1
 62
1
100
AcDbSpline
 70
8
 71
3
 72
8
 73
4
 74
0
 40
0
 40
0
 40
0
 40
0
 40
1
 40
1
 40
1
 40
1
 10
89.796216
 20
1078.910890
 30
0.0
 10
85.116726
 20
1080.706570
 30
0.0
 10
64.976053
 20
1069.999360
 30
0.0
 10
60.724883
 20
1071.734490
 30
0.0
  0
SPLINE
  5
10d
100
AcDbEntity
  8
Ebene_1
 62
1
100
AcDbSpline
 70
8
 71
3
 72
8
 73
4
 74
0
 40
0
 40
0
 40
0
 40
0
 40
1
 40
1
 40
1
 40
1
 10
60.724883
 20
1071.734490
 30
0.0
 10
54.724373
 20
1073.032490
 30
0.0
 10
48.878143
 20
1083.458130
 30
0.0
 10
53.698383
 20
1092.349860
 30
0.0
  0
SPLINE
  5
10e
100
AcDbEntity
  8
Ebene_1
 62
1
100
AcDbSpline
 70
8
 71
3
 72
8
 73
4
 74
0
 40
0
 40
0
 40
0
 40
0
 40
1
 40
1
 40
1
 40
1
 10
53.698383
 20
1092.349860
 30
0.0
 10
55.576133
 20
1095.129980
 30
0.0
 10
65.700383
 20
1102.092080
 30
0.0
 10
71.030433
 20
1107.821270
 30
0.0
  0
SPLINE
  5
10f
100
AcDbEntity
  8
Ebene_1
 62
1
100
AcDbSpline
 70
8
 71
3
 72
8
 73
4
 74
0
 40
0
 40
0
 40
0
 40
0
 40
1
 40
1
 40
1
 40
1
 10
71.030433
 20
1107.821270
 30
0.0
 10
76.525847
 20
1113.728180
 30
0.0
 10
81.693727
 20
1121.693930
 30
0.0
 10
82.967697
 20
1126.220660
 30
0.0
  0
SPLINE
  5
110
100
AcDbEntity
  8
Ebene_1
 62
1
100
AcDbSpline
 70
8
 71
3
 72
8
 73
4
 74
0
 40
0
 40
0
 40
0
 40
0
 40
1
 40
1
 40
1
 40
1
 10
82.967697
 20
1126.220660
 30
0.0
 10
84.203346
 20
1130.611210
 30
0.0
 10
86.616946
 20
1156.283420
 30
0.0
 10
88.331186
 20
1183.269370
 30
0.0
  0
SPLINE
  5
111
100
AcDbEntity
  8
Ebene_1
 62
1
100
AcDbSpline
 70
8
 71
3
 72
8
 73
4
 74
0
 40
0
 40
0
 40
0
 40
0
 40
1
 40
1
 40
1
 40
1
 10
88.331186
 20
1183.269370
 30
0.0
 10
90.045436
 20
1210.255330
 30
0.0
 10
93.621156
 20
1254.413860
 30
0.0
 10
96.276956
 20
1281.399820
 30
0.0
  0
SPLINE
  5
112
100
AcDbEntity
  8
Ebene_1
 62
1
100
AcDbSpline
 70
8
 71
3
 72
8
 73
4
 74
0
 40
0
 40
0
 40
0
 40
0
 40
1
 40
1
 40
1
 40
1
 10
96.276956
 20
1281.399820
 30
0.0
 10
98.932756
 20
1308.385770
 30
0.0
 10
100.656016
 20
1335.251180
 30
0.0
 10
100.106186
 20
1341.100570
 30
0.0
  0
SPLINE
  5
113
100
AcDbEntity
  8
Ebene_1
 62
1
100
AcDbSpline
 70
8
 71
3
 72
8
 73
4
 74
0
 40
0
 40
0
 40
0
 40
0
 40
1
 40
1
 40
1
 40
1
 10
100.106186
 20
1341.100570
 30
0.0
 10
99.224116
 20
1350.484650
 30
0.0
 10
99.719256
 20
1352.348560
 30
0.0
 10
104.315226
 20
1356.944560
 30
0.0
  0
SPLINE
  5
114
100
AcDbEntity
  8
Ebene_1
 62
1
100
AcDbSpline
 70
8
 71
3
 72
8
 73
4
 74
0
 40
0
 40
0
 40
0
 40
0
 40
1
 40
1
 40
1
 40
1
 10
104.315226
 20
1356.944560
 30
0.0
 10
109.632478
 20
1362.261790
 30
0.0
 10
116.640108
 20
1363.781480
 30
0.0
 10
118.909687
 20
1360.109220
 30
0.0
  0
SPLINE
  5
115
100
AcDbEntity
  8
Ebene_1
 62
1
100
AcDbSpline
 70
8
 71
3
 72
8
 73
4
 74
0
 40
0
 40
0
 40
0
 40
0
 40
1
 40
1
 40
1
 40
1
 10
118.909687
 20
1360.109220
 30
0.0
 10
121.909058
 20
1355.256140
 30
0.0
 10
124.503198
 20
1358.387510
 30
0.0
 10
123.353348
 20
1365.473240
 30
0.0
  0
SPLINE
  5
116
100
AcDbEntity
  8
Ebene_1
 62
1
100
AcDbSpline
 70
8
 71
3
 72
8
 73
4
 74
0
 40
0
 40
0
 40
0
 40
0
 40
1
 40
1
 40
1
 40
1
 10
123.353348
 20
1365.473240
 30
0.0
 10
121.565678
 20
1373.610780
 30
0.0
 10
127.069408
 20
1375.138950
 30
0.0
 10
134.779307
 20
1373.887730
 30
0.0
  0
SPLINE
  5
117
100
AcDbEntity
  8
Ebene_1
 62
1
100
AcDbSpline
 70
8
 71
3
 72
8
 73
4
 74
0
 40
0
 40
0
 40
0
 40
0
 40
1
 40
1
 40
1
 40
1
 10
487.057330
 20
1372.759580
 30
0.0
 10
472.643050
 20
1366.802760
 30
0.0
 10
465.419800
 20
1354.385900
 30
0.0
 10
465.106000
 20
1337.797350
 30
0.0
  0
SPLINE
  5
118
100
AcDbEntity
  8
Ebene_1
 62
1
100
AcDbSpline
 70
8
 71
3
 72
8
 73
4
 74
0
 40
0
 40
0
 40
0
 40
0
 40
1
 40
1
 40
1
 40
1
 10
465.106000
 20
1337.797350
 30
0.0
 10
465.106000
 20
1328.723350
 30
0.0
 10
469.561860
 20
1324.850000
 30
0.0
 10
476.410740
 20
1327.970550
 30
0.0
  0
SPLINE
  5
119
100
AcDbEntity
  8
Ebene_1
 62
1
100
AcDbSpline
 70
8
 71
3
 72
8
 73
4
 74
0
 40
0
 40
0
 40
0
 40
0
 40
1
 40
1
 40
1
 40
1
 10
476.410740
 20
1327.970550
 30
0.0
 10
481.090030
 20
1330.102580
 30
0.0
 10
481.461080
 20
1329.873630
 30
0.0
 10
481.461080
 20
1324.854470
 30
0.0
  0
SPLINE
  5
11a
100
AcDbEntity
  8
Ebene_1
 62
1
100
AcDbSpline
 70
8
 71
3
 72
8
 73
4
 74
0
 40
0
 40
0
 40
0
 40
0
 40
1
 40
1
 40
1
 40
1
 10
481.461080
 20
1324.854470
 30
0.0
 10
481.461080
 20
1318.940740
 30
0.0
 10
486.613290
 20
1311.959650
 30
0.0
 10
490.977810
 20
1311.959650
 30
0.0
  0
SPLINE
  5
11b
100
AcDbEntity
  8
Ebene_1
 62
1
100
AcDbSpline
 70
8
 71
3
 72
8
 73
4
 74
0
 40
0
 40
0
 40
0
 40
0
 40
1
 40
1
 40
1
 40
1
 10
490.977810
 20
1311.959650
 30
0.0
 10
493.172230
 20
1312.410100
 30
0.0
 10
501.054130
 20
1310.223880
 30
0.0
 10
498.787150
 20
1289.554810
 30
0.0
  0
SPLINE
  5
11c
100
AcDbEntity
  8
Ebene_1
 62
1
100
AcDbSpline
 70
8
 71
3
 72
8
 73
4
 74
0
 40
0
 40
0
 40
0
 40
0
 40
1
 40
1
 40
1
 40
1
 10
498.787150
 20
1289.554810
 30
0.0
 10
499.361290
 20
1288.625860
 30
0.0
 10
499.832300
 20
1264.948210
 30
0.0
 10
501.825210
 20
1237.047940
 30
0.0
  0
SPLINE
  5
11d
100
AcDbEntity
  8
Ebene_1
 62
1
100
AcDbSpline
 70
8
 71
3
 72
8
 73
4
 74
0
 40
0
 40
0
 40
0
 40
0
 40
1
 40
1
 40
1
 40
1
 10
501.825210
 20
1237.047940
 30
0.0
 10
504.320980
 20
1202.107730
 30
0.0
 10
505.334790
 20
1177.115050
 30
0.0
 10
507.727170
 20
1162.719140
 30
0.0
  0
SPLINE
  5
11e
100
AcDbEntity
  8
Ebene_1
 62
1
100
AcDbSpline
 70
8
 71
3
 72
8
 73
4
 74
0
 40
0
 40
0
 40
0
 40
0
 40
1
 40
1
 40
1
 40
1
 10
507.727170
 20
1162.719140
 30
0.0
 10
509.876080
 20
1149.788380
 30
0.0
 10
512.256920
 20
1128.823140
 30
0.0
 10
513.017810
 20
1116.129740
 30
0.0
  0
SPLINE
  5
11f
100
AcDbEntity
  8
Ebene_1
 62
1
100
AcDbSpline
 70
8
 71
3
 72
8
 73
4
 74
0
 40
0
 40
0
 40
0
 40
0
 40
1
 40
1
 40
1
 40
1
 10
513.017810
 20
1116.129740
 30
0.0
 10
514.378860
 20
1093.424240
 30
0.0
 10
514.316430
 20
1092.950630
 30
0.0
 10
509.175150
 20
1086.840570
 30
0.0
  0
SPLINE
  5
120
100
AcDbEntity
  8
Ebene_1
 62
1
100
AcDbSpline
 70
8
 71
3
 72
8
 73
4
 74
0
 40
0
 40
0
 40
0
 40
0
 40
1
 40
1
 40
1
 40
1
 10
509.175150
 20
1086.840570
 30
0.0
 10
502.481100
 20
1078.885150
 30
0.0
 10
502.577870
 20
1074.211810
 30
0.0
 10
509.571510
 20
1067.682050
 30
0.0
  0
SPLINE
  5
121
100
AcDbEntity
  8
Ebene_1
 62
1
100
AcDbSpline
 70
8
 71
3
 72
8
 73
4
 74
0
 40
0
 40
0
 40
0
 40
0
 40
1
 40
1
 40
1
 40
1
 10
509.571510
 20
1067.682050
 30
0.0
 10
516.788330
 20
1060.943890
 30
0.0
 10
522.589430
 20
1061.791020
 30
0.0
 10
526.255760
 20
1070.118080
 30
0.0
  0
SPLINE
  5
122
100
AcDbEntity
  8
Ebene_1
 62
1
100
AcDbSpline
 70
8
 71
3
 72
8
 73
4
 74
0
 40
0
 40
0
 40
0
 40
0
 40
1
 40
1
 40
1
 40
1
 10
526.255760
 20
1070.118080
 30
0.0
 10
527.842370
 20
1073.721610
 30
0.0
 10
530.445520
 20
1077.170720
 30
0.0
 10
532.040420
 20
1077.782730
 30
0.0
  0
SPLINE
  5
123
100
AcDbEntity
  8
Ebene_1
 62
1
100
AcDbSpline
 70
8
 71
3
 72
8
 73
4
 74
0
 40
0
 40
0
 40
0
 40
0
 40
1
 40
1
 40
1
 40
1
 10
532.040420
 20
1077.782730
 30
0.0
 10
536.719910
 20
1079.578410
 30
0.0
 10
556.860580
 20
1068.871200
 30
0.0
 10
561.111750
 20
1070.606330
 30
0.0
  0
SPLINE
  5
124
100
AcDbEntity
  8
Ebene_1
 62
1
100
AcDbSpline
 70
8
 71
3
 72
8
 73
4
 74
0
 40
0
 40
0
 40
0
 40
0
 40
1
 40
1
 40
1
 40
1
 10
561.111750
 20
1070.606330
 30
0.0
 10
567.112260
 20
1071.904330
 30
0.0
 10
572.958490
 20
1082.329970
 30
0.0
 10
568.138250
 20
1091.221700
 30
0.0
  0
SPLINE
  5
125
100
AcDbEntity
  8
Ebene_1
 62
1
100
AcDbSpline
 70
8
 71
3
 72
8
 73
4
 74
0
 40
0
 40
0
 40
0
 40
0
 40
1
 40
1
 40
1
 40
1
 10
568.138250
 20
1091.221700
 30
0.0
 10
566.260500
 20
1094.001820
 30
0.0
 10
556.136250
 20
1100.963920
 30
0.0
 10
550.806200
 20
1106.693110
 30
0.0
  0
SPLINE
  5
126
100
AcDbEntity
  8
Ebene_1
 62
1
100
AcDbSpline
 70
8
 71
3
 72
8
 73
4
 74
0
 40
0
 40
0
 40
0
 40
0
 40
1
 40
1
 40
1
 40
1
 10
550.806200
 20
1106.693110
 30
0.0
 10
545.310790
 20
1112.600020
 30
0.0
 10
540.142910
 20
1120.565770
 30
0.0
 10
538.868940
 20
1125.092500
 30
0.0
  0
SPLINE
  5
127
100
AcDbEntity
  8
Ebene_1
 62
1
100
AcDbSpline
 70
8
 71
3
 72
8
 73
4
 74
0
 40
0
 40
0
 40
0
 40
0
 40
1
 40
1
 40
1
 40
1
 10
538.868940
 20
1125.092500
 30
0.0
 10
537.633290
 20
1129.483050
 30
0.0
 10
535.219690
 20
1155.155260
 30
0.0
 10
533.505450
 20
1182.141210
 30
0.0
  0
SPLINE
  5
128
100
AcDbEntity
  8
Ebene_1
 62
1
100
AcDbSpline
 70
8
 71
3
 72
8
 73
4
 74
0
 40
0
 40
0
 40
0
 40
0
 40
1
 40
1
 40
1
 40
1
 10
533.505450
 20
1182.141210
 30
0.0
 10
531.791200
 20
1209.127170
 30
0.0
 10
528.215480
 20
1253.285700
 30
0.0
 10
525.559680
 20
1280.271660
 30
0.0
  0
SPLINE
  5
129
100
AcDbEntity
  8
Ebene_1
 62
1
100
AcDbSpline
 70
8
 71
3
 72
8
 73
4
 74
0
 40
0
 40
0
 40
0
 40
0
 40
1
 40
1
 40
1
 40
1
 10
525.559680
 20
1280.271660
 30
0.0
 10
522.903880
 20
1307.257610
 30
0.0
 10
521.180620
 20
1334.123020
 30
0.0
 10
521.730450
 20
1339.972410
 30
0.0
  0
SPLINE
  5
12a
100
AcDbEntity
  8
Ebene_1
 62
1
100
AcDbSpline
 70
8
 71
3
 72
8
 73
4
 74
0
 40
0
 40
0
 40
0
 40
0
 40
1
 40
1
 40
1
 40
1
 10
521.730450
 20
1339.972410
 30
0.0
 10
522.612520
 20
1349.356490
 30
0.0
 10
522.117380
 20
1351.220400
 30
0.0
 10
517.521410
 20
1355.816400
 30
0.0
  0
SPLINE
  5
12b
100
AcDbEntity
  8
Ebene_1
 62
1
100
AcDbSpline
 70
8
 71
3
 72
8
 73
4
 74
0
 40
0
 40
0
 40
0
 40
0
 40
1
 40
1
 40
1
 40
1
 10
517.521410
 20
1355.816400
 30
0.0
 10
512.204160
 20
1361.133630
 30
0.0
 10
505.196530
 20
1362.653320
 30
0.0
 10
502.926950
 20
1358.981060
 30
0.0
  0
SPLINE
  5
12c
100
AcDbEntity
  8
Ebene_1
 62
1
100
AcDbSpline
 70
8
 71
3
 72
8
 73
4
 74
0
 40
0
 40
0
 40
0
 40
0
 40
1
 40
1
 40
1
 40
1
 10
502.926950
 20
1358.981060
 30
0.0
 10
499.927580
 20
1354.127980
 30
0.0
 10
497.333440
 20
1357.259350
 30
0.0
 10
498.483290
 20
1364.345090
 30
0.0
  0
SPLINE
  5
12d
100
AcDbEntity
  8
Ebene_1
 62
1
100
AcDbSpline
 70
8
 71
3
 72
8
 73
4
 74
0
 40
0
 40
0
 40
0
 40
0
 40
1
 40
1
 40
1
 40
1
 10
498.483290
 20
1364.345090
 30
0.0
 10
500.270960
 20
1372.482630
 30
0.0
 10
494.767230
 20
1374.010800
 30
0.0
 10
487.057330
 20
1372.759580
 30
0.0
  0
LWPOLYLINE
  5
12e
100
AcDbEntity
  8
Ebene_1
 62
1
100
AcDbPolyline
 90
1
 70
1
 10
134.779307
 20
1373.887730
 30
0.0
  0
SPLINE
  5
12f
100
AcDbEntity
  8
Ebene_1
 62
1
100
AcDbSpline
 70
8
 71
3
 72
8
 73
4
 74
0
 40
0
 40
0
 40
0
 40
0
 40
1
 40
1
 40
1
 40
1
 10
81.332850
 20
1091.147680
 30
0.0
 10
73.482190
 20
1091.532170
 30
0.0
 10
69.851620
 20
1087.285030
 30
0.0
 10
67.865970
 20
1084.865900
 30
0.0
  0
SPLINE
  5
130
100
AcDbEntity
  8
Ebene_1
 62
1
100
AcDbSpline
 70
8
 71
3
 72
8
 73
4
 74
0
 40
0
 40
0
 40
0
 40
0
 40
1
 40
1
 40
1
 40
1
 10
67.865970
 20
1084.865900
 30
0.0
 10
62.417320
 20
1078.227750
 30
0.0
 10
76.530940
 20
1066.941940
 30
0.0
 10
72.476030
 20
1068.974360
 30
0.0
  0
SPLINE
  5
131
100
AcDbEntity
  8
Ebene_1
 62
1
100
AcDbSpline
 70
8
 71
3
 72
8
 73
4
 74
0
 40
0
 40
0
 40
0
 40
0
 40
1
 40
1
 40
1
 40
1
 10
72.476030
 20
1068.974360
 30
0.0
 10
65.671900
 20
1067.543930
 30
0.0
 10
56.033810
 20
1072.738930
 30
0.0
 10
51.397210
 20
1068.153740
 30
0.0
  0
SPLINE
  5
132
100
AcDbEntity
  8
Ebene_1
 62
1
100
AcDbSpline
 70
8
 71
3
 72
8
 73
4
 74
0
 40
0
 40
0
 40
0
 40
0
 40
1
 40
1
 40
1
 40
1
 10
51.397210
 20
1068.153740
 30
0.0
 10
45.965900
 20
1062.722430
 30
0.0
 10
48.683390
 20
1056.738130
 30
0.0
 10
57.455760
 20
1054.811400
 30
0.0
  0
SPLINE
  5
133
100
AcDbEntity
  8
Ebene_1
 62
1
100
AcDbSpline
 70
8
 71
3
 72
8
 73
4
 74
0
 40
0
 40
0
 40
0
 40
0
 40
1
 40
1
 40
1
 40
1
 10
57.455760
 20
1054.811400
 30
0.0
 10
64.078480
 20
1053.356800
 30
0.0
 10
64.942210
 20
1051.850440
 30
0.0
 10
61.262760
 20
1048.170980
 30
0.0
  0
SPLINE
  5
134
100
AcDbEntity
  8
Ebene_1
 62
1
100
AcDbSpline
 70
8
 71
3
 72
8
 73
4
 74
0
 40
0
 40
0
 40
0
 40
0
 40
1
 40
1
 40
1
 40
1
 10
61.262760
 20
1048.170980
 30
0.0
 10
59.501140
 20
1046.409370
 30
0.0
 10
60.008610
 20
1043.295000
 30
0.0
 10
63.307080
 20
1035.627560
 30
0.0
  0
SPLINE
  5
135
100
AcDbEntity
  8
Ebene_1
 62
1
100
AcDbSpline
 70
8
 71
3
 72
8
 73
4
 74
0
 40
0
 40
0
 40
0
 40
0
 40
1
 40
1
 40
1
 40
1
 10
63.307080
 20
1035.627560
 30
0.0
 10
68.683240
 20
1023.130300
 30
0.0
 10
69.205190
 20
994.184220
 30
0.0
 10
64.509590
 20
968.943260
 30
0.0
  0
SPLINE
  5
136
100
AcDbEntity
  8
Ebene_1
 62
1
100
AcDbSpline
 70
8
 71
3
 72
8
 73
4
 74
0
 40
0
 40
0
 40
0
 40
0
 40
1
 40
1
 40
1
 40
1
 10
64.509590
 20
968.943260
 30
0.0
 10
60.784280
 20
948.918040
 30
0.0
 10
55.365220
 20
867.909040
 30
0.0
 10
55.855850
 20
839.580610
 30
0.0
  0
SPLINE
  5
137
100
AcDbEntity
  8
Ebene_1
 62
1
100
AcDbSpline
 70
8
 71
3
 72
8
 73
4
 74
0
 40
0
 40
0
 40
0
 40
0
 40
1
 40
1
 40
1
 40
1
 10
55.855850
 20
839.580610
 30
0.0
 10
56.162790
 20
821.858950
 30
0.0
 10
55.658100
 20
818.233700
 30
0.0
 10
52.380610
 20
814.612110
 30
0.0
  0
SPLINE
  5
138
100
AcDbEntity
  8
Ebene_1
 62
1
100
AcDbSpline
 70
8
 71
3
 72
8
 73
4
 74
0
 40
0
 40
0
 40
0
 40
0
 40
1
 40
1
 40
1
 40
1
 10
52.380610
 20
814.612110
 30
0.0
 10
48.935810
 20
810.805650
 30
0.0
 10
48.864720
 20
810.057160
 30
0.0
 10
51.680400
 20
807.241500
 30
0.0
  0
SPLINE
  5
139
100
AcDbEntity
  8
Ebene_1
 62
1
100
AcDbSpline
 70
8
 71
3
 72
8
 73
4
 74
0
 40
0
 40
0
 40
0
 40
0
 40
1
 40
1
 40
1
 40
1
 10
51.680400
 20
807.241500
 30
0.0
 10
62.469320
 20
805.794090
 30
0.0
 10
65.740940
 20
800.339030
 30
0.0
 10
59.274250
 20
798.314910
 30
0.0
  0
SPLINE
  5
13a
100
AcDbEntity
  8
Ebene_1
 62
1
100
AcDbSpline
 70
8
 71
3
 72
8
 73
4
 74
0
 40
0
 40
0
 40
0
 40
0
 40
1
 40
1
 40
1
 40
1
 10
59.274250
 20
798.314910
 30
0.0
 10
44.372230
 20
793.650480
 30
0.0
 10
46.277560
 20
797.776800
 30
0.0
 10
43.178590
 20
785.464530
 30
0.0
  0
SPLINE
  5
13b
100
AcDbEntity
  8
Ebene_1
 62
1
100
AcDbSpline
 70
8
 71
3
 72
8
 73
4
 74
0
 40
0
 40
0
 40
0
 40
0
 40
1
 40
1
 40
1
 40
1
 10
43.178590
 20
785.464530
 30
0.0
 10
41.975010
 20
780.682760
 30
0.0
 10
39.054020
 20
772.469510
 30
0.0
 10
36.687510
 20
767.212930
 30
0.0
  0
SPLINE
  5
13c
100
AcDbEntity
  8
Ebene_1
 62
1
100
AcDbSpline
 70
8
 71
3
 72
8
 73
4
 74
0
 40
0
 40
0
 40
0
 40
0
 40
1
 40
1
 40
1
 40
1
 10
36.687510
 20
767.212930
 30
0.0
 10
34.043360
 20
761.339650
 30
0.0
 10
33.135970
 20
756.858180
 30
0.0
 10
33.904220
 20
754.149650
 30
0.0
  0
SPLINE
  5
13d
100
AcDbEntity
  8
Ebene_1
 62
1
100
AcDbSpline
 70
8
 71
3
 72
8
 73
4
 74
0
 40
0
 40
0
 40
0
 40
0
 40
1
 40
1
 40
1
 40
1
 10
33.904220
 20
754.149650
 30
0.0
 10
33.937960
 20
754.144480
 30
0.0
 10
33.944970
 20
754.131400
 30
0.0
 10
33.917140
 20
754.108310
 30
0.0
  0
LWPOLYLINE
  5
13e
100
AcDbEntity
  8
Ebene_1
 62
1
100
AcDbPolyline
 90
1
 70
1
 10
487.057330
 20
1372.759580
 30
0.0
  0
SPLINE
  5
13f
100
AcDbEntity
  8
Ebene_1
 62
1
100
AcDbSpline
 70
8
 71
3
 72
8
 73
4
 74
0
 40
0
 40
0
 40
0
 40
0
 40
1
 40
1
 40
1
 40
1
 10
33.916620
 20
754.108310
 30
0.0
 10
33.832550
 20
754.038730
 30
0.0
 10
33.554860
 20
753.908910
 30
0.0
 10
33.525430
 20
753.820990
 30
0.0
  0
SPLINE
  5
140
100
AcDbEntity
  8
Ebene_1
 62
1
100
AcDbSpline
 70
8
 71
3
 72
8
 73
4
 74
0
 40
0
 40
0
 40
0
 40
0
 40
1
 40
1
 40
1
 40
1
 10
33.525430
 20
753.820990
 30
0.0
 10
32.646950
 20
751.196470
 30
0.0
 10
31.428830
 20
722.192930
 30
0.0
 10
32.100710
 20
720.125880
 30
0.0
  0
SPLINE
  5
141
100
AcDbEntity
  8
Ebene_1
 62
1
100
AcDbSpline
 70
8
 71
3
 72
8
 73
4
 74
0
 40
0
 40
0
 40
0
 40
0
 40
1
 40
1
 40
1
 40
1
 10
32.100710
 20
720.125880
 30
0.0
 10
32.533160
 20
718.795410
 30
0.0
 10
31.969200
 20
716.256040
 30
0.0
 10
30.848080
 20
714.482820
 30
0.0
  0
SPLINE
  5
142
100
AcDbEntity
  8
Ebene_1
 62
1
100
AcDbSpline
 70
8
 71
3
 72
8
 73
4
 74
0
 40
0
 40
0
 40
0
 40
0
 40
1
 40
1
 40
1
 40
1
 10
30.848080
 20
714.482820
 30
0.0
 10
29.726940
 20
712.709610
 30
0.0
 10
29.089120
 20
708.418530
 30
0.0
 10
29.430590
 20
704.947480
 30
0.0
  0
SPLINE
  5
143
100
AcDbEntity
  8
Ebene_1
 62
1
100
AcDbSpline
 70
8
 71
3
 72
8
 73
4
 74
0
 40
0
 40
0
 40
0
 40
0
 40
1
 40
1
 40
1
 40
1
 10
29.430590
 20
704.947480
 30
0.0
 10
30.406990
 20
695.022720
 30
0.0
 10
34.739800
 20
694.832000
 30
0.0
 10
36.915410
 20
704.617270
 30
0.0
  0
SPLINE
  5
144
100
AcDbEntity
  8
Ebene_1
 62
1
100
AcDbSpline
 70
8
 71
3
 72
8
 73
4
 74
0
 40
0
 40
0
 40
0
 40
0
 40
1
 40
1
 40
1
 40
1
 10
36.915410
 20
704.617270
 30
0.0
 10
38.252410
 20
709.819360
 30
0.0
 10
35.976770
 20
716.518350
 30
0.0
 10
38.010950
 20
717.449560
 30
0.0
  0
SPLINE
  5
145
100
AcDbEntity
  8
Ebene_1
 62
1
100
AcDbSpline
 70
8
 71
3
 72
8
 73
4
 74
0
 40
0
 40
0
 40
0
 40
0
 40
1
 40
1
 40
1
 40
1
 10
38.010950
 20
717.449560
 30
0.0
 10
40.953240
 20
727.155460
 30
0.0
 10
42.837950
 20
744.730100
 30
0.0
 10
41.183360
 20
752.070700
 30
0.0
  0
SPLINE
  5
146
100
AcDbEntity
  8
Ebene_1
 62
1
100
AcDbSpline
 70
8
 71
3
 72
8
 73
4
 74
0
 40
0
 40
0
 40
0
 40
0
 40
1
 40
1
 40
1
 40
1
 10
41.183360
 20
752.070700
 30
0.0
 10
45.467720
 20
754.349740
 30
0.0
 10
49.567670
 20
761.213170
 30
0.0
 10
53.300970
 20
772.431740
 30
0.0
  0
SPLINE
  5
147
100
AcDbEntity
  8
Ebene_1
 62
1
100
AcDbSpline
 70
8
 71
3
 72
8
 73
4
 74
0
 40
0
 40
0
 40
0
 40
0
 40
1
 40
1
 40
1
 40
1
 10
53.300970
 20
772.431740
 30
0.0
 10
55.778860
 20
779.877820
 30
0.0
 10
58.651290
 20
785.969930
 30
0.0
 10
59.684040
 20
785.969930
 30
0.0
  0
SPLINE
  5
148
100
AcDbEntity
  8
Ebene_1
 62
1
100
AcDbSpline
 70
8
 71
3
 72
8
 73
4
 74
0
 40
0
 40
0
 40
0
 40
0
 40
1
 40
1
 40
1
 40
1
 10
59.684040
 20
785.969930
 30
0.0
 10
62.658970
 20
785.969930
 30
0.0
 10
61.933940
 20
782.110100
 30
0.0
 10
56.325590
 20
768.091430
 30
0.0
  0
SPLINE
  5
149
100
AcDbEntity
  8
Ebene_1
 62
1
100
AcDbSpline
 70
8
 71
3
 72
8
 73
4
 74
0
 40
0
 40
0
 40
0
 40
0
 40
1
 40
1
 40
1
 40
1
 10
56.325590
 20
768.091430
 30
0.0
 10
52.114070
 20
757.564280
 30
0.0
 10
51.578640
 20
754.412640
 30
0.0
 10
53.590880
 20
751.988020
 30
0.0
  0
SPLINE
  5
14a
100
AcDbEntity
  8
Ebene_1
 62
1
100
AcDbSpline
 70
8
 71
3
 72
8
 73
4
 74
0
 40
0
 40
0
 40
0
 40
0
 40
1
 40
1
 40
1
 40
1
 10
53.590880
 20
751.988020
 30
0.0
 10
53.684100
 20
751.875690
 30
0.0
 10
53.784290
 20
751.787160
 30
0.0
 10
53.879750
 20
751.682100
 30
0.0
  0
SPLINE
  5
14b
100
AcDbEntity
  8
Ebene_1
 62
1
100
AcDbSpline
 70
8
 71
3
 72
8
 73
4
 74
0
 40
0
 40
0
 40
0
 40
0
 40
1
 40
1
 40
1
 40
1
 10
53.879750
 20
751.682100
 30
0.0
 10
50.738170
 20
740.895360
 30
0.0
 10
47.768600
 20
710.005390
 30
0.0
 10
50.938840
 20
704.888060
 30
0.0
  0
SPLINE
  5
14c
100
AcDbEntity
  8
Ebene_1
 62
1
100
AcDbSpline
 70
8
 71
3
 72
8
 73
4
 74
0
 40
0
 40
0
 40
0
 40
0
 40
1
 40
1
 40
1
 40
1
 10
50.938840
 20
704.888060
 30
0.0
 10
51.132180
 20
704.575970
 30
0.0
 10
51.320910
 20
704.328050
 30
0.0
 10
51.510900
 20
704.064330
 30
0.0
  0
SPLINE
  5
14d
100
AcDbEntity
  8
Ebene_1
 62
1
100
AcDbSpline
 70
8
 71
3
 72
8
 73
4
 74
0
 40
0
 40
0
 40
0
 40
0
 40
1
 40
1
 40
1
 40
1
 10
51.510900
 20
704.064330
 30
0.0
 10
51.311400
 20
703.871580
 30
0.0
 10
51.117570
 20
703.697060
 30
0.0
 10
50.910940
 20
703.479870
 30
0.0
  0
SPLINE
  5
14e
100
AcDbEntity
  8
Ebene_1
 62
1
100
AcDbSpline
 70
8
 71
3
 72
8
 73
4
 74
0
 40
0
 40
0
 40
0
 40
0
 40
1
 40
1
 40
1
 40
1
 10
50.910940
 20
703.479870
 30
0.0
 10
48.179900
 20
700.609340
 30
0.0
 10
46.364930
 20
690.329920
 30
0.0
 10
48.945160
 20
682.514740
 30
0.0
  0
SPLINE
  5
14f
100
AcDbEntity
  8
Ebene_1
 62
1
100
AcDbSpline
 70
8
 71
3
 72
8
 73
4
 74
0
 40
0
 40
0
 40
0
 40
0
 40
1
 40
1
 40
1
 40
1
 10
48.945160
 20
682.514740
 30
0.0
 10
50.695340
 20
677.213700
 30
0.0
 10
52.851410
 20
673.116070
 30
0.0
 10
53.736600
 20
673.408320
 30
0.0
  0
SPLINE
  5
150
100
AcDbEntity
  8
Ebene_1
 62
1
100
AcDbSpline
 70
8
 71
3
 72
8
 73
4
 74
0
 40
0
 40
0
 40
0
 40
0
 40
1
 40
1
 40
1
 40
1
 10
53.736600
 20
673.408320
 30
0.0
 10
54.621820
 20
673.700580
 30
0.0
 10
56.648860
 20
678.958500
 30
0.0
 10
56.693530
 20
685.191070
 30
0.0
  0
SPLINE
  5
151
100
AcDbEntity
  8
Ebene_1
 62
1
100
AcDbSpline
 70
8
 71
3
 72
8
 73
4
 74
0
 40
0
 40
0
 40
0
 40
0
 40
1
 40
1
 40
1
 40
1
 10
56.693530
 20
685.191070
 30
0.0
 10
56.758640
 20
694.275710
 30
0.0
 10
57.340520
 20
700.799540
 30
0.0
 10
56.885760
 20
704.053480
 30
0.0
  0
SPLINE
  5
152
100
AcDbEntity
  8
Ebene_1
 62
1
100
AcDbSpline
 70
8
 71
3
 72
8
 73
4
 74
0
 40
0
 40
0
 40
0
 40
0
 40
1
 40
1
 40
1
 40
1
 10
56.885760
 20
704.053480
 30
0.0
 10
58.717440
 20
707.533110
 30
0.0
 10
60.055520
 20
715.272680
 30
0.0
 10
60.642120
 20
727.561090
 30
0.0
  0
SPLINE
  5
153
100
AcDbEntity
  8
Ebene_1
 62
1
100
AcDbSpline
 70
8
 71
3
 72
8
 73
4
 74
0
 40
0
 40
0
 40
0
 40
0
 40
1
 40
1
 40
1
 40
1
 10
60.642120
 20
727.561090
 30
0.0
 10
61.149200
 20
738.183430
 30
0.0
 10
61.068540
 20
745.135350
 30
0.0
 10
60.596130
 20
749.571120
 30
0.0
  0
SPLINE
  5
154
100
AcDbEntity
  8
Ebene_1
 62
1
100
AcDbSpline
 70
8
 71
3
 72
8
 73
4
 74
0
 40
0
 40
0
 40
0
 40
0
 40
1
 40
1
 40
1
 40
1
 10
60.596130
 20
749.571120
 30
0.0
 10
62.951720
 20
750.377360
 30
0.0
 10
64.858990
 20
752.763690
 30
0.0
 10
65.178800
 20
756.326260
 30
0.0
  0
SPLINE
  5
155
100
AcDbEntity
  8
Ebene_1
 62
1
100
AcDbSpline
 70
8
 71
3
 72
8
 73
4
 74
0
 40
0
 40
0
 40
0
 40
0
 40
1
 40
1
 40
1
 40
1
 10
65.178800
 20
756.326260
 30
0.0
 10
65.923740
 20
764.624720
 30
0.0
 10
71.815800
 20
783.925610
 30
0.0
 10
73.604120
 20
783.925610
 30
0.0
  0
SPLINE
  5
156
100
AcDbEntity
  8
Ebene_1
 62
1
100
AcDbSpline
 70
8
 71
3
 72
8
 73
4
 74
0
 40
0
 40
0
 40
0
 40
0
 40
1
 40
1
 40
1
 40
1
 10
73.604120
 20
783.925610
 30
0.0
 10
75.789270
 20
783.925610
 30
0.0
 10
73.902190
 20
756.965280
 30
0.0
 10
71.355170
 20
751.795790
 30
0.0
  0
SPLINE
  5
157
100
AcDbEntity
  8
Ebene_1
 62
1
100
AcDbSpline
 70
8
 71
3
 72
8
 73
4
 74
0
 40
0
 40
0
 40
0
 40
0
 40
1
 40
1
 40
1
 40
1
 10
71.355170
 20
751.795790
 30
0.0
 10
69.591040
 20
748.215270
 30
0.0
 10
70.364330
 20
744.894850
 30
0.0
 10
72.895120
 20
742.905370
 30
0.0
  0
SPLINE
  5
158
100
AcDbEntity
  8
Ebene_1
 62
1
100
AcDbSpline
 70
8
 71
3
 72
8
 73
4
 74
0
 40
0
 40
0
 40
0
 40
0
 40
1
 40
1
 40
1
 40
1
 10
72.895120
 20
742.905370
 30
0.0
 10
71.549510
 20
739.499780
 30
0.0
 10
70.478160
 20
733.492320
 30
0.0
 10
70.924700
 20
730.480290
 30
0.0
  0
SPLINE
  5
159
100
AcDbEntity
  8
Ebene_1
 62
1
100
AcDbSpline
 70
8
 71
3
 72
8
 73
4
 74
0
 40
0
 40
0
 40
0
 40
0
 40
1
 40
1
 40
1
 40
1
 10
70.924700
 20
730.480290
 30
0.0
 10
71.368320
 20
727.487190
 30
0.0
 10
71.444250
 20
718.051370
 30
0.0
 10
71.094200
 20
709.511550
 30
0.0
  0
SPLINE
  5
15a
100
AcDbEntity
  8
Ebene_1
 62
1
100
AcDbSpline
 70
8
 71
3
 72
8
 73
4
 74
0
 40
0
 40
0
 40
0
 40
0
 40
1
 40
1
 40
1
 40
1
 10
71.094200
 20
709.511550
 30
0.0
 10
70.820110
 20
702.824810
 30
0.0
 10
70.924000
 20
696.744410
 30
0.0
 10
71.300910
 20
694.018430
 30
0.0
  0
SPLINE
  5
15b
100
AcDbEntity
  8
Ebene_1
 62
1
100
AcDbSpline
 70
8
 71
3
 72
8
 73
4
 74
0
 40
0
 40
0
 40
0
 40
0
 40
1
 40
1
 40
1
 40
1
 10
71.300910
 20
694.018430
 30
0.0
 10
68.070490
 20
690.154740
 30
0.0
 10
66.487720
 20
677.269050
 30
0.0
 10
68.937230
 20
670.037470
 30
0.0
  0
SPLINE
  5
15c
100
AcDbEntity
  8
Ebene_1
 62
1
100
AcDbSpline
 70
8
 71
3
 72
8
 73
4
 74
0
 40
0
 40
0
 40
0
 40
0
 40
1
 40
1
 40
1
 40
1
 10
68.937230
 20
670.037470
 30
0.0
 10
73.621320
 20
656.208710
 30
0.0
 10
78.781430
 20
668.596660
 30
0.0
 10
79.646130
 20
688.364520
 30
0.0
  0
SPLINE
  5
15d
100
AcDbEntity
  8
Ebene_1
 62
1
100
AcDbSpline
 70
8
 71
3
 72
8
 73
4
 74
0
 40
0
 40
0
 40
0
 40
0
 40
1
 40
1
 40
1
 40
1
 10
79.646130
 20
688.364520
 30
0.0
 10
79.736540
 20
690.431280
 30
0.0
 10
79.079900
 20
692.158740
 30
0.0
 10
77.787330
 20
693.420540
 30
0.0
  0
SPLINE
  5
15e
100
AcDbEntity
  8
Ebene_1
 62
1
100
AcDbSpline
 70
8
 71
3
 72
8
 73
4
 74
0
 40
0
 40
0
 40
0
 40
0
 40
1
 40
1
 40
1
 40
1
 10
77.787330
 20
693.420540
 30
0.0
 10
79.709340
 20
697.001350
 30
0.0
 10
80.672560
 20
705.663390
 30
0.0
 10
80.776810
 20
720.012200
 30
0.0
  0
SPLINE
  5
15f
100
AcDbEntity
  8
Ebene_1
 62
1
100
AcDbSpline
 70
8
 71
3
 72
8
 73
4
 74
0
 40
0
 40
0
 40
0
 40
0
 40
1
 40
1
 40
1
 40
1
 10
80.776810
 20
720.012200
 30
0.0
 10
80.840880
 20
728.832020
 30
0.0
 10
81.284360
 20
736.702290
 30
0.0
 10
80.370120
 20
741.032100
 30
0.0
  0
SPLINE
  5
160
100
AcDbEntity
  8
Ebene_1
 62
1
100
AcDbSpline
 70
8
 71
3
 72
8
 73
4
 74
0
 40
0
 40
0
 40
0
 40
0
 40
1
 40
1
 40
1
 40
1
 10
80.370120
 20
741.032100
 30
0.0
 10
83.805220
 20
741.228940
 30
0.0
 10
84.035550
 20
742.724570
 30
0.0
 10
83.837090
 20
752.748700
 30
0.0
  0
SPLINE
  5
161
100
AcDbEntity
  8
Ebene_1
 62
1
100
AcDbSpline
 70
8
 71
3
 72
8
 73
4
 74
0
 40
0
 40
0
 40
0
 40
0
 40
1
 40
1
 40
1
 40
1
 10
83.837090
 20
752.748700
 30
0.0
 10
83.554920
 20
767.001700
 30
0.0
 10
85.810460
 20
779.836970
 30
0.0
 10
88.597010
 20
779.836970
 30
0.0
  0
SPLINE
  5
162
100
AcDbEntity
  8
Ebene_1
 62
1
100
AcDbSpline
 70
8
 71
3
 72
8
 73
4
 74
0
 40
0
 40
0
 40
0
 40
0
 40
1
 40
1
 40
1
 40
1
 10
88.597010
 20
779.836970
 30
0.0
 10
90.409930
 20
779.836970
 30
0.0
 10
90.066720
 20
767.047270
 30
0.0
 10
87.719020
 20
747.126300
 30
0.0
  0
LWPOLYLINE
  5
163
100
AcDbEntity
  8
Ebene_1
 62
1
100
AcDbPolyline
 90
2
 70
0
 10
33.917140
 20
754.108310
 30
0.0
 10
33.916620
 20
754.108310
 30
0.0
  0
SPLINE
  5
164
100
AcDbEntity
  8
Ebene_1
 62
1
100
AcDbSpline
 70
8
 71
3
 72
8
 73
4
 74
0
 40
0
 40
0
 40
0
 40
0
 40
1
 40
1
 40
1
 40
1
 10
87.720060
 20
747.126300
 30
0.0
 10
87.393650
 20
744.356630
 30
0.0
 10
87.591980
 20
743.018350
 30
0.0
 10
89.198520
 20
742.268200
 30
0.0
  0
SPLINE
  5
165
100
AcDbEntity
  8
Ebene_1
 62
1
100
AcDbSpline
 70
8
 71
3
 72
8
 73
4
 74
0
 40
0
 40
0
 40
0
 40
0
 40
1
 40
1
 40
1
 40
1
 10
89.198520
 20
742.268200
 30
0.0
 10
86.142220
 20
734.595050
 30
0.0
 10
89.509100
 20
713.588820
 30
0.0
 10
89.509100
 20
713.588820
 30
0.0
  0
SPLINE
  5
166
100
AcDbEntity
  8
Ebene_1
 62
1
100
AcDbSpline
 70
8
 71
3
 72
8
 73
4
 74
0
 40
0
 40
0
 40
0
 40
0
 40
1
 40
1
 40
1
 40
1
 10
89.509100
 20
713.588820
 30
0.0
 10
89.748780
 20
705.000830
 30
0.0
 10
90.577740
 20
700.104720
 30
0.0
 10
91.580290
 20
697.403760
 30
0.0
  0
SPLINE
  5
167
100
AcDbEntity
  8
Ebene_1
 62
1
100
AcDbSpline
 70
8
 71
3
 72
8
 73
4
 74
0
 40
0
 40
0
 40
0
 40
0
 40
1
 40
1
 40
1
 40
1
 10
91.580290
 20
697.403760
 30
0.0
 10
90.410420
 20
694.920750
 30
0.0
 10
90.182960
 20
686.986430
 30
0.0
 10
90.182960
 20
679.762970
 30
0.0
  0
SPLINE
  5
168
100
AcDbEntity
  8
Ebene_1
 62
1
100
AcDbSpline
 70
8
 71
3
 72
8
 73
4
 74
0
 40
0
 40
0
 40
0
 40
0
 40
1
 40
1
 40
1
 40
1
 10
90.182960
 20
679.762970
 30
0.0
 10
90.182960
 20
673.144680
 30
0.0
 10
90.741710
 20
666.274190
 30
0.0
 10
91.424220
 20
664.495690
 30
0.0
  0
SPLINE
  5
169
100
AcDbEntity
  8
Ebene_1
 62
1
100
AcDbSpline
 70
8
 71
3
 72
8
 73
4
 74
0
 40
0
 40
0
 40
0
 40
0
 40
1
 40
1
 40
1
 40
1
 10
91.424220
 20
664.495690
 30
0.0
 10
93.407240
 20
659.327990
 30
0.0
 10
95.475510
 20
660.697510
 30
0.0
 10
98.212440
 20
668.990500
 30
0.0
  0
SPLINE
  5
16a
100
AcDbEntity
  8
Ebene_1
 62
1
100
AcDbSpline
 70
8
 71
3
 72
8
 73
4
 74
0
 40
0
 40
0
 40
0
 40
0
 40
1
 40
1
 40
1
 40
1
 10
98.212440
 20
668.990500
 30
0.0
 10
101.263680
 20
678.235820
 30
0.0
 10
101.103520
 20
693.256970
 30
0.0
 10
97.274510
 20
696.776410
 30
0.0
  0
SPLINE
  5
16b
100
AcDbEntity
  8
Ebene_1
 62
1
100
AcDbSpline
 70
8
 71
3
 72
8
 73
4
 74
0
 40
0
 40
0
 40
0
 40
0
 40
1
 40
1
 40
1
 40
1
 10
97.274510
 20
696.776410
 30
0.0
 10
98.064850
 20
701.019900
 30
0.0
 10
100.125210
 20
734.998760
 30
0.0
 10
100.444860
 20
742.069250
 30
0.0
  0
SPLINE
  5
16c
100
AcDbEntity
  8
Ebene_1
 62
1
100
AcDbSpline
 70
8
 71
3
 72
8
 73
4
 74
0
 40
0
 40
0
 40
0
 40
0
 40
1
 40
1
 40
1
 40
1
 10
100.444860
 20
742.069250
 30
0.0
 10
100.392680
 20
742.192300
 30
0.0
 10
100.311520
 20
742.308860
 30
0.0
 10
100.220070
 20
742.423230
 30
0.0
  0
SPLINE
  5
16d
100
AcDbEntity
  8
Ebene_1
 62
1
100
AcDbSpline
 70
8
 71
3
 72
8
 73
4
 74
0
 40
0
 40
0
 40
0
 40
0
 40
1
 40
1
 40
1
 40
1
 10
100.220070
 20
742.423230
 30
0.0
 10
101.964810
 20
744.502230
 30
0.0
 10
102.354030
 20
749.751770
 30
0.0
 10
103.168210
 20
762.219960
 30
0.0
  0
SPLINE
  5
16e
100
AcDbEntity
  8
Ebene_1
 62
1
100
AcDbSpline
 70
8
 71
3
 72
8
 73
4
 74
0
 40
0
 40
0
 40
0
 40
0
 40
1
 40
1
 40
1
 40
1
 10
103.168210
 20
762.219960
 30
0.0
 10
104.407920
 20
781.204380
 30
0.0
 10
106.905450
 20
785.321150
 30
0.0
 10
110.303180
 20
773.980480
 30
0.0
  0
SPLINE
  5
16f
100
AcDbEntity
  8
Ebene_1
 62
1
100
AcDbSpline
 70
8
 71
3
 72
8
 73
4
 74
0
 40
0
 40
0
 40
0
 40
0
 40
1
 40
1
 40
1
 40
1
 10
110.303180
 20
773.980480
 30
0.0
 10
111.537420
 20
769.860940
 30
0.0
 10
113.269890
 20
766.979430
 30
0.0
 10
115.210890
 20
765.479710
 30
0.0
  0
SPLINE
  5
170
100
AcDbEntity
  8
Ebene_1
 62
1
100
AcDbSpline
 70
8
 71
3
 72
8
 73
4
 74
0
 40
0
 40
0
 40
0
 40
0
 40
1
 40
1
 40
1
 40
1
 10
115.210890
 20
765.479710
 30
0.0
 10
113.353170
 20
757.160030
 30
0.0
 10
114.327600
 20
732.277830
 30
0.0
 10
117.170460
 20
730.474610
 30
0.0
  0
SPLINE
  5
171
100
AcDbEntity
  8
Ebene_1
 62
1
100
AcDbSpline
 70
8
 71
3
 72
8
 73
4
 74
0
 40
0
 40
0
 40
0
 40
0
 40
1
 40
1
 40
1
 40
1
 10
117.170460
 20
730.474610
 30
0.0
 10
117.556040
 20
730.230020
 30
0.0
 10
117.920140
 20
730.019780
 30
0.0
 10
118.278920
 20
729.817800
 30
0.0
  0
SPLINE
  5
172
100
AcDbEntity
  8
Ebene_1
 62
1
100
AcDbSpline
 70
8
 71
3
 72
8
 73
4
 74
0
 40
0
 40
0
 40
0
 40
0
 40
1
 40
1
 40
1
 40
1
 10
118.278920
 20
729.817800
 30
0.0
 10
115.897910
 20
728.332250
 30
0.0
 10
114.493620
 20
725.531230
 30
0.0
 10
114.493620
 20
720.598720
 30
0.0
  0
SPLINE
  5
173
100
AcDbEntity
  8
Ebene_1
 62
1
100
AcDbSpline
 70
8
 71
3
 72
8
 73
4
 74
0
 40
0
 40
0
 40
0
 40
0
 40
1
 40
1
 40
1
 40
1
 10
114.493620
 20
720.598720
 30
0.0
 10
114.493620
 20
715.075830
 30
0.0
 10
118.021380
 20
713.667040
 30
0.0
 10
121.375880
 20
718.299120
 30
0.0
  0
SPLINE
  5
174
100
AcDbEntity
  8
Ebene_1
 62
1
100
AcDbSpline
 70
8
 71
3
 72
8
 73
4
 74
0
 40
0
 40
0
 40
0
 40
0
 40
1
 40
1
 40
1
 40
1
 10
121.375880
 20
718.299120
 30
0.0
 10
124.262480
 20
722.285080
 30
0.0
 10
125.533080
 20
726.952420
 30
0.0
 10
124.545200
 20
729.374930
 30
0.0
  0
SPLINE
  5
175
100
AcDbEntity
  8
Ebene_1
 62
1
100
AcDbSpline
 70
8
 71
3
 72
8
 73
4
 74
0
 40
0
 40
0
 40
0
 40
0
 40
1
 40
1
 40
1
 40
1
 10
124.545200
 20
729.374930
 30
0.0
 10
126.295880
 20
731.160840
 30
0.0
 10
126.982260
 20
735.588210
 30
0.0
 10
126.982260
 20
743.232480
 30
0.0
  0
SPLINE
  5
176
100
AcDbEntity
  8
Ebene_1
 62
1
100
AcDbSpline
 70
8
 71
3
 72
8
 73
4
 74
0
 40
0
 40
0
 40
0
 40
0
 40
1
 40
1
 40
1
 40
1
 10
126.982260
 20
743.232480
 30
0.0
 10
126.982260
 20
750.906110
 30
0.0
 10
124.557890
 20
760.716260
 30
0.0
 10
121.609460
 20
765.513300
 30
0.0
  0
SPLINE
  5
177
100
AcDbEntity
  8
Ebene_1
 62
1
100
AcDbSpline
 70
8
 71
3
 72
8
 73
4
 74
0
 40
0
 40
0
 40
0
 40
0
 40
1
 40
1
 40
1
 40
1
 10
121.609460
 20
765.513300
 30
0.0
 10
121.901130
 20
765.737660
 30
0.0
 10
122.191070
 20
765.990510
 30
0.0
 10
122.478660
 20
766.278110
 30
0.0
  0
SPLINE
  5
178
100
AcDbEntity
  8
Ebene_1
 62
1
100
AcDbSpline
 70
8
 71
3
 72
8
 73
4
 74
0
 40
0
 40
0
 40
0
 40
0
 40
1
 40
1
 40
1
 40
1
 10
122.478660
 20
766.278110
 30
0.0
 10
125.045130
 20
768.844570
 30
0.0
 10
124.968170
 20
770.423030
 30
0.0
 10
121.883350
 20
778.500620
 30
0.0
  0
SPLINE
  5
179
100
AcDbEntity
  8
Ebene_1
 62
1
100
AcDbSpline
 70
8
 71
3
 72
8
 73
4
 74
0
 40
0
 40
0
 40
0
 40
0
 40
1
 40
1
 40
1
 40
1
 10
121.883350
 20
778.500620
 30
0.0
 10
117.969260
 20
788.749490
 30
0.0
 10
112.125040
 20
792.102890
 30
0.0
 10
98.177300
 20
792.102890
 30
0.0
  0
SPLINE
  5
17a
100
AcDbEntity
  8
Ebene_1
 62
1
100
AcDbSpline
 70
8
 71
3
 72
8
 73
4
 74
0
 40
0
 40
0
 40
0
 40
0
 40
1
 40
1
 40
1
 40
1
 10
98.177300
 20
792.102890
 30
0.0
 10
89.271950
 20
792.102890
 30
0.0
 10
88.202540
 20
793.213520
 30
0.0
 10
90.302330
 20
800.280680
 30
0.0
  0
SPLINE
  5
17b
100
AcDbEntity
  8
Ebene_1
 62
1
100
AcDbSpline
 70
8
 71
3
 72
8
 73
4
 74
0
 40
0
 40
0
 40
0
 40
0
 40
1
 40
1
 40
1
 40
1
 10
90.302330
 20
800.280680
 30
0.0
 10
91.245100
 20
803.453740
 30
0.0
 10
91.898150
 20
804.062250
 30
0.0
 10
92.024700
 20
801.885750
 30
0.0
  0
SPLINE
  5
17c
100
AcDbEntity
  8
Ebene_1
 62
1
100
AcDbSpline
 70
8
 71
3
 72
8
 73
4
 74
0
 40
0
 40
0
 40
0
 40
0
 40
1
 40
1
 40
1
 40
1
 10
92.024700
 20
801.885750
 30
0.0
 10
92.311220
 20
796.956790
 30
0.0
 10
99.244930
 20
793.800320
 30
0.0
 10
108.159120
 20
794.540460
 30
0.0
  0
SPLINE
  5
17d
100
AcDbEntity
  8
Ebene_1
 62
1
100
AcDbSpline
 70
8
 71
3
 72
8
 73
4
 74
0
 40
0
 40
0
 40
0
 40
0
 40
1
 40
1
 40
1
 40
1
 10
108.159120
 20
794.540460
 30
0.0
 10
114.836140
 20
795.094830
 30
0.0
 10
115.673320
 20
795.761970
 30
0.0
 10
115.186080
 20
800.142710
 30
0.0
  0
SPLINE
  5
17e
100
AcDbEntity
  8
Ebene_1
 62
1
100
AcDbSpline
 70
8
 71
3
 72
8
 73
4
 74
0
 40
0
 40
0
 40
0
 40
0
 40
1
 40
1
 40
1
 40
1
 10
115.186080
 20
800.142710
 30
0.0
 10
101.806500
 20
826.154250
 30
0.0
 10
82.577760
 20
818.868730
 30
0.0
 10
99.419600
 20
823.633260
 30
0.0
  0
SPLINE
  5
17f
100
AcDbEntity
  8
Ebene_1
 62
1
100
AcDbSpline
 70
8
 71
3
 72
8
 73
4
 74
0
 40
0
 40
0
 40
0
 40
0
 40
1
 40
1
 40
1
 40
1
 10
99.419600
 20
823.633260
 30
0.0
 10
103.109070
 20
825.049040
 30
0.0
 10
103.138640
 20
836.171590
 30
0.0
 10
99.091460
 20
842.348400
 30
0.0
  0
SPLINE
  5
180
100
AcDbEntity
  8
Ebene_1
 62
1
100
AcDbSpline
 70
8
 71
3
 72
8
 73
4
 74
0
 40
0
 40
0
 40
0
 40
0
 40
1
 40
1
 40
1
 40
1
 10
99.091460
 20
842.348400
 30
0.0
 10
96.127810
 20
846.871510
 30
0.0
 10
96.002410
 20
849.924040
 30
0.0
 10
98.024860
 20
868.342680
 30
0.0
  0
SPLINE
  5
181
100
AcDbEntity
  8
Ebene_1
 62
1
100
AcDbSpline
 70
8
 71
3
 72
8
 73
4
 74
0
 40
0
 40
0
 40
0
 40
0
 40
1
 40
1
 40
1
 40
1
 10
98.024860
 20
868.342680
 30
0.0
 10
99.285170
 20
879.820710
 30
0.0
 10
100.748010
 20
902.091410
 30
0.0
 10
101.275300
 20
917.833200
 30
0.0
  0
SPLINE
  5
182
100
AcDbEntity
  8
Ebene_1
 62
1
100
AcDbSpline
 70
8
 71
3
 72
8
 73
4
 74
0
 40
0
 40
0
 40
0
 40
0
 40
1
 40
1
 40
1
 40
1
 10
101.275300
 20
917.833200
 30
0.0
 10
101.802590
 20
933.575000
 30
0.0
 10
103.705850
 20
958.414530
 30
0.0
 10
105.505020
 20
973.031890
 30
0.0
  0
SPLINE
  5
183
100
AcDbEntity
  8
Ebene_1
 62
1
100
AcDbSpline
 70
8
 71
3
 72
8
 73
4
 74
0
 40
0
 40
0
 40
0
 40
0
 40
1
 40
1
 40
1
 40
1
 10
105.505020
 20
973.031890
 30
0.0
 10
107.668130
 20
990.606050
 30
0.0
 10
108.330380
 20
1005.841750
 30
0.0
 10
107.459940
 20
1018.008480
 30
0.0
  0
SPLINE
  5
184
100
AcDbEntity
  8
Ebene_1
 62
1
100
AcDbSpline
 70
8
 71
3
 72
8
 73
4
 74
0
 40
0
 40
0
 40
0
 40
0
 40
1
 40
1
 40
1
 40
1
 10
107.459940
 20
1018.008480
 30
0.0
 10
106.263870
 20
1034.726850
 30
0.0
 10
106.535360
 20
1036.904650
 30
0.0
 10
110.429780
 20
1041.841650
 30
0.0
  0
SPLINE
  5
185
100
AcDbEntity
  8
Ebene_1
 62
1
100
AcDbSpline
 70
8
 71
3
 72
8
 73
4
 74
0
 40
0
 40
0
 40
0
 40
0
 40
1
 40
1
 40
1
 40
1
 10
110.429780
 20
1041.841650
 30
0.0
 10
119.406420
 20
1053.952290
 30
0.0
 10
112.730410
 20
1067.657780
 30
0.0
 10
97.325160
 20
1067.735670
 30
0.0
  0
SPLINE
  5
186
100
AcDbEntity
  8
Ebene_1
 62
1
100
AcDbSpline
 70
8
 71
3
 72
8
 73
4
 74
0
 40
0
 40
0
 40
0
 40
0
 40
1
 40
1
 40
1
 40
1
 10
97.325160
 20
1067.735670
 30
0.0
 10
90.600780
 20
1067.331740
 30
0.0
 10
99.737280
 20
1084.796460
 30
0.0
 10
94.895850
 20
1087.145860
 30
0.0
  0
SPLINE
  5
187
100
AcDbEntity
  8
Ebene_1
 62
1
100
AcDbSpline
 70
8
 71
3
 72
8
 73
4
 74
0
 40
0
 40
0
 40
0
 40
0
 40
1
 40
1
 40
1
 40
1
 10
94.895850
 20
1087.145860
 30
0.0
 10
89.341580
 20
1089.841170
 30
0.0
 10
84.901330
 20
1090.972920
 30
0.0
 10
81.332850
 20
1091.147680
 30
0.0
  0
LWPOLYLINE
  5
188
100
AcDbEntity
  8
Ebene_1
 62
1
100
AcDbPolyline
 90
2
 70
0
 10
87.719020
 20
747.126300
 30
0.0
 10
87.720060
 20
747.126300
 30
0.0
  0
SPLINE
  5
189
100
AcDbEntity
  8
Ebene_1
 62
1
100
AcDbSpline
 70
8
 71
3
 72
8
 73
4
 74
0
 40
0
 40
0
 40
0
 40
0
 40
1
 40
1
 40
1
 40
1
 10
33.916620
 20
754.108310
 30
0.0
 10
33.912570
 20
754.122180
 30
0.0
 10
33.908180
 20
754.135680
 30
0.0
 10
33.904220
 20
754.149650
 30
0.0
  0
SPLINE
  5
18a
100
AcDbEntity
  8
Ebene_1
 62
1
100
AcDbSpline
 70
8
 71
3
 72
8
 73
4
 74
0
 40
0
 40
0
 40
0
 40
0
 40
1
 40
1
 40
1
 40
1
 10
33.904220
 20
754.149650
 30
0.0
 10
33.896560
 20
754.150820
 30
0.0
 10
33.907330
 20
754.157400
 30
0.0
 10
33.895440
 20
754.157400
 30
0.0
  0
SPLINE
  5
18b
100
AcDbEntity
  8
Ebene_1
 62
1
100
AcDbSpline
 70
8
 71
3
 72
8
 73
4
 74
0
 40
0
 40
0
 40
0
 40
0
 40
1
 40
1
 40
1
 40
1
 10
33.895440
 20
754.157400
 30
0.0
 10
33.752990
 20
754.157400
 30
0.0
 10
33.792950
 20
754.134230
 30
0.0
 10
33.916620
 20
754.108310
 30
0.0
  0
LWPOLYLINE
  5
18c
100
AcDbEntity
  8
Ebene_1
 62
1
100
AcDbPolyline
 90
1
 70
1
 10
81.332850
 20
1091.147680
 30
0.0
  0
SPLINE
  5
18d
100
AcDbEntity
  8
Ebene_1
 62
1
100
AcDbSpline
 70
8
 71
3
 72
8
 73
4
 74
0
 40
0
 40
0
 40
0
 40
0
 40
1
 40
1
 40
1
 40
1
 10
88.084890
 20
1055.135410
 30
0.0
 10
90.227550
 20
1055.045760
 30
0.0
 10
91.214710
 20
1053.464160
 30
0.0
 10
90.407230
 20
1050.281440
 30
0.0
  0
SPLINE
  5
18e
100
AcDbEntity
  8
Ebene_1
 62
1
100
AcDbSpline
 70
8
 71
3
 72
8
 73
4
 74
0
 40
0
 40
0
 40
0
 40
0
 40
1
 40
1
 40
1
 40
1
 10
90.407230
 20
1050.281440
 30
0.0
 10
87.764890
 20
1039.866480
 30
0.0
 10
95.290440
 20
1032.216850
 30
0.0
 10
90.421190
 20
1017.432800
 30
0.0
  0
SPLINE
  5
18f
100
AcDbEntity
  8
Ebene_1
 62
1
100
AcDbSpline
 70
8
 71
3
 72
8
 73
4
 74
0
 40
0
 40
0
 40
0
 40
0
 40
1
 40
1
 40
1
 40
1
 10
90.421190
 20
1017.432800
 30
0.0
 10
86.079930
 20
1004.252000
 30
0.0
 10
84.274230
 20
982.720000
 30
0.0
 10
83.267620
 20
932.143950
 30
0.0
  0
SPLINE
  5
190
100
AcDbEntity
  8
Ebene_1
 62
1
100
AcDbSpline
 70
8
 71
3
 72
8
 73
4
 74
0
 40
0
 40
0
 40
0
 40
0
 40
1
 40
1
 40
1
 40
1
 10
83.267620
 20
932.143950
 30
0.0
 10
82.520730
 20
894.617510
 30
0.0
 10
79.788840
 20
861.333390
 30
0.0
 10
73.546760
 20
851.516830
 30
0.0
  0
SPLINE
  5
191
100
AcDbEntity
  8
Ebene_1
 62
1
100
AcDbSpline
 70
8
 71
3
 72
8
 73
4
 74
0
 40
0
 40
0
 40
0
 40
0
 40
1
 40
1
 40
1
 40
1
 10
73.546760
 20
851.516830
 30
0.0
 10
69.687270
 20
845.447220
 30
0.0
 10
70.589280
 20
833.061600
 30
0.0
 10
69.822960
 20
835.304900
 30
0.0
  0
SPLINE
  5
192
100
AcDbEntity
  8
Ebene_1
 62
1
100
AcDbSpline
 70
8
 71
3
 72
8
 73
4
 74
0
 40
0
 40
0
 40
0
 40
0
 40
1
 40
1
 40
1
 40
1
 10
69.822960
 20
835.304900
 30
0.0
 10
67.141840
 20
839.779950
 30
0.0
 10
69.447270
 20
843.342870
 30
0.0
 10
68.927410
 20
859.632610
 30
0.0
  0
SPLINE
  5
193
100
AcDbEntity
  8
Ebene_1
 62
1
100
AcDbSpline
 70
8
 71
3
 72
8
 73
4
 74
0
 40
0
 40
0
 40
0
 40
0
 40
1
 40
1
 40
1
 40
1
 10
68.927410
 20
859.632610
 30
0.0
 10
71.909350
 20
895.126790
 30
0.0
 10
72.561880
 20
928.638410
 30
0.0
 10
77.966650
 20
961.787620
 30
0.0
  0
SPLINE
  5
194
100
AcDbEntity
  8
Ebene_1
 62
1
100
AcDbSpline
 70
8
 71
3
 72
8
 73
4
 74
0
 40
0
 40
0
 40
0
 40
0
 40
1
 40
1
 40
1
 40
1
 10
77.966650
 20
961.787620
 30
0.0
 10
82.498190
 20
988.430700
 30
0.0
 10
83.970320
 20
1003.305720
 30
0.0
 10
83.732700
 20
1020.052800
 30
0.0
  0
SPLINE
  5
195
100
AcDbEntity
  8
Ebene_1
 62
1
100
AcDbSpline
 70
8
 71
3
 72
8
 73
4
 74
0
 40
0
 40
0
 40
0
 40
0
 40
1
 40
1
 40
1
 40
1
 10
83.732700
 20
1020.052800
 30
0.0
 10
83.557190
 20
1032.421340
 30
0.0
 10
83.227580
 20
1045.988700
 30
0.0
 10
84.087720
 20
1050.202380
 30
0.0
  0
SPLINE
  5
196
100
AcDbEntity
  8
Ebene_1
 62
1
100
AcDbSpline
 70
8
 71
3
 72
8
 73
4
 74
0
 40
0
 40
0
 40
0
 40
0
 40
1
 40
1
 40
1
 40
1
 10
84.087720
 20
1050.202380
 30
0.0
 10
84.442450
 20
1051.940120
 30
0.0
 10
84.515300
 20
1054.731690
 30
0.0
 10
87.097870
 20
1055.082700
 30
0.0
  0
SPLINE
  5
197
100
AcDbEntity
  8
Ebene_1
 62
1
100
AcDbSpline
 70
8
 71
3
 72
8
 73
4
 74
0
 40
0
 40
0
 40
0
 40
0
 40
1
 40
1
 40
1
 40
1
 10
87.097870
 20
1055.082700
 30
0.0
 10
87.449250
 20
1055.130460
 30
0.0
 10
87.778800
 20
1055.148220
 30
0.0
 10
88.084890
 20
1055.135410
 30
0.0
  0
LWPOLYLINE
  5
198
100
AcDbEntity
  8
Ebene_1
 62
1
100
AcDbPolyline
 90
1
 70
1
 10
33.916620
 20
754.108310
 30
0.0
  0
SPLINE
  5
199
100
AcDbEntity
  8
Ebene_1
 62
1
100
AcDbSpline
 70
8
 71
3
 72
8
 73
4
 74
0
 40
0
 40
0
 40
0
 40
0
 40
1
 40
1
 40
1
 40
1
 10
81.482710
 20
836.079530
 30
0.0
 10
82.857320
 20
836.178080
 30
0.0
 10
84.512780
 20
835.698330
 30
0.0
 10
86.475690
 20
834.424850
 30
0.0
  0
SPLINE
  5
19a
100
AcDbEntity
  8
Ebene_1
 62
1
100
AcDbSpline
 70
8
 71
3
 72
8
 73
4
 74
0
 40
0
 40
0
 40
0
 40
0
 40
1
 40
1
 40
1
 40
1
 10
86.475690
 20
834.424850
 30
0.0
 10
90.745370
 20
832.268190
 30
0.0
 10
87.827410
 20
826.823330
 30
0.0
 10
84.841160
 20
822.674660
 30
0.0
  0
SPLINE
  5
19b
100
AcDbEntity
  8
Ebene_1
 62
1
100
AcDbSpline
 70
8
 71
3
 72
8
 73
4
 74
0
 40
0
 40
0
 40
0
 40
0
 40
1
 40
1
 40
1
 40
1
 10
84.841160
 20
822.674660
 30
0.0
 10
76.004100
 20
806.350780
 30
0.0
 10
71.860470
 20
835.389710
 30
0.0
 10
81.482710
 20
836.079530
 30
0.0
  0
LWPOLYLINE
  5
19c
100
AcDbEntity
  8
Ebene_1
 62
1
100
AcDbPolyline
 90
1
 70
1
 10
88.084890
 20
1055.135410
 30
0.0
  0
SPLINE
  5
19d
100
AcDbEntity
  8
Ebene_1
 62
1
100
AcDbSpline
 70
8
 71
3
 72
8
 73
4
 74
0
 40
0
 40
0
 40
0
 40
0
 40
1
 40
1
 40
1
 40
1
 10
538.761350
 20
1085.000780
 30
0.0
 10
546.612010
 20
1085.385270
 30
0.0
 10
550.242580
 20
1081.138130
 30
0.0
 10
552.228230
 20
1078.719000
 30
0.0
  0
SPLINE
  5
19e
100
AcDbEntity
  8
Ebene_1
 62
1
100
AcDbSpline
 70
8
 71
3
 72
8
 73
4
 74
0
 40
0
 40
0
 40
0
 40
0
 40
1
 40
1
 40
1
 40
1
 10
552.228230
 20
1078.719000
 30
0.0
 10
557.676880
 20
1072.080850
 30
0.0
 10
543.563260
 20
1060.795040
 30
0.0
 10
547.618170
 20
1062.827460
 30
0.0
  0
SPLINE
  5
19f
100
AcDbEntity
  8
Ebene_1
 62
1
100
AcDbSpline
 70
8
 71
3
 72
8
 73
4
 74
0
 40
0
 40
0
 40
0
 40
0
 40
1
 40
1
 40
1
 40
1
 10
547.618170
 20
1062.827460
 30
0.0
 10
554.422300
 20
1061.397030
 30
0.0
 10
564.060390
 20
1066.592030
 30
0.0
 10
568.696990
 20
1062.006840
 30
0.0
  0
SPLINE
  5
1a0
100
AcDbEntity
  8
Ebene_1
 62
1
100
AcDbSpline
 70
8
 71
3
 72
8
 73
4
 74
0
 40
0
 40
0
 40
0
 40
0
 40
1
 40
1
 40
1
 40
1
 10
568.696990
 20
1062.006840
 30
0.0
 10
574.128300
 20
1056.575530
 30
0.0
 10
571.410810
 20
1050.591230
 30
0.0
 10
562.638440
 20
1048.664500
 30
0.0
  0
SPLINE
  5
1a1
100
AcDbEntity
  8
Ebene_1
 62
1
100
AcDbSpline
 70
8
 71
3
 72
8
 73
4
 74
0
 40
0
 40
0
 40
0
 40
0
 40
1
 40
1
 40
1
 40
1
 10
562.638440
 20
1048.664500
 30
0.0
 10
556.015720
 20
1047.209900
 30
0.0
 10
555.151990
 20
1045.703540
 30
0.0
 10
558.831440
 20
1042.024080
 30
0.0
  0
SPLINE
  5
1a2
100
AcDbEntity
  8
Ebene_1
 62
1
100
AcDbSpline
 70
8
 71
3
 72
8
 73
4
 74
0
 40
0
 40
0
 40
0
 40
0
 40
1
 40
1
 40
1
 40
1
 10
558.831440
 20
1042.024080
 30
0.0
 10
560.593060
 20
1040.262470
 30
0.0
 10
560.085590
 20
1037.148100
 30
0.0
 10
556.787120
 20
1029.480660
 30
0.0
  0
SPLINE
  5
1a3
100
AcDbEntity
  8
Ebene_1
 62
1
100
AcDbSpline
 70
8
 71
3
 72
8
 73
4
 74
0
 40
0
 40
0
 40
0
 40
0
 40
1
 40
1
 40
1
 40
1
 10
556.787120
 20
1029.480660
 30
0.0
 10
551.410960
 20
1016.983400
 30
0.0
 10
550.889010
 20
988.037320
 30
0.0
 10
555.584610
 20
962.796360
 30
0.0
  0
SPLINE
  5
1a4
100
AcDbEntity
  8
Ebene_1
 62
1
100
AcDbSpline
 70
8
 71
3
 72
8
 73
4
 74
0
 40
0
 40
0
 40
0
 40
0
 40
1
 40
1
 40
1
 40
1
 10
555.584610
 20
962.796360
 30
0.0
 10
559.309920
 20
942.771140
 30
0.0
 10
564.728980
 20
861.762140
 30
0.0
 10
564.238350
 20
833.433710
 30
0.0
  0
SPLINE
  5
1a5
100
AcDbEntity
  8
Ebene_1
 62
1
100
AcDbSpline
 70
8
 71
3
 72
8
 73
4
 74
0
 40
0
 40
0
 40
0
 40
0
 40
1
 40
1
 40
1
 40
1
 10
564.238350
 20
833.433710
 30
0.0
 10
563.931410
 20
815.712050
 30
0.0
 10
564.436100
 20
812.086800
 30
0.0
 10
567.713590
 20
808.465210
 30
0.0
  0
SPLINE
  5
1a6
100
AcDbEntity
  8
Ebene_1
 62
1
100
AcDbSpline
 70
8
 71
3
 72
8
 73
4
 74
0
 40
0
 40
0
 40
0
 40
0
 40
1
 40
1
 40
1
 40
1
 10
567.713590
 20
808.465210
 30
0.0
 10
571.158390
 20
804.658750
 30
0.0
 10
571.229480
 20
803.910260
 30
0.0
 10
568.413800
 20
801.094600
 30
0.0
  0
SPLINE
  5
1a7
100
AcDbEntity
  8
Ebene_1
 62
1
100
AcDbSpline
 70
8
 71
3
 72
8
 73
4
 74
0
 40
0
 40
0
 40
0
 40
0
 40
1
 40
1
 40
1
 40
1
 10
568.413800
 20
801.094600
 30
0.0
 10
557.624880
 20
799.647190
 30
0.0
 10
554.353260
 20
794.192130
 30
0.0
 10
560.819950
 20
792.168010
 30
0.0
  0
SPLINE
  5
1a8
100
AcDbEntity
  8
Ebene_1
 62
1
100
AcDbSpline
 70
8
 71
3
 72
8
 73
4
 74
0
 40
0
 40
0
 40
0
 40
0
 40
1
 40
1
 40
1
 40
1
 10
560.819950
 20
792.168010
 30
0.0
 10
575.721970
 20
787.503580
 30
0.0
 10
573.816640
 20
791.629900
 30
0.0
 10
576.915610
 20
779.317630
 30
0.0
  0
SPLINE
  5
1a9
100
AcDbEntity
  8
Ebene_1
 62
1
100
AcDbSpline
 70
8
 71
3
 72
8
 73
4
 74
0
 40
0
 40
0
 40
0
 40
0
 40
1
 40
1
 40
1
 40
1
 10
576.915610
 20
779.317630
 30
0.0
 10
578.119190
 20
774.535860
 30
0.0
 10
581.040180
 20
766.322610
 30
0.0
 10
583.406690
 20
761.066030
 30
0.0
  0
SPLINE
  5
1aa
100
AcDbEntity
  8
Ebene_1
 62
1
100
AcDbSpline
 70
8
 71
3
 72
8
 73
4
 74
0
 40
0
 40
0
 40
0
 40
0
 40
1
 40
1
 40
1
 40
1
 10
583.406690
 20
761.066030
 30
0.0
 10
586.050840
 20
755.192750
 30
0.0
 10
586.958230
 20
750.711280
 30
0.0
 10
586.189980
 20
748.002750
 30
0.0
  0
SPLINE
  5
1ab
100
AcDbEntity
  8
Ebene_1
 62
1
100
AcDbSpline
 70
8
 71
3
 72
8
 73
4
 74
0
 40
0
 40
0
 40
0
 40
0
 40
1
 40
1
 40
1
 40
1
 10
586.189980
 20
748.002750
 30
0.0
 10
586.156280
 20
747.997750
 30
0.0
 10
586.149180
 20
747.984450
 30
0.0
 10
586.177080
 20
747.961450
 30
0.0
  0
LWPOLYLINE
  5
1ac
100
AcDbEntity
  8
Ebene_1
 62
1
100
AcDbPolyline
 90
1
 70
1
 10
81.482710
 20
836.079530
 30
0.0
  0
SPLINE
  5
1ad
100
AcDbEntity
  8
Ebene_1
 62
1
100
AcDbSpline
 70
8
 71
3
 72
8
 73
4
 74
0
 40
0
 40
0
 40
0
 40
0
 40
1
 40
1
 40
1
 40
1
 10
586.177600
 20
747.961450
 30
0.0
 10
586.261700
 20
747.891850
 30
0.0
 10
586.539360
 20
747.762050
 30
0.0
 10
586.568790
 20
747.674130
 30
0.0
  0
SPLINE
  5
1ae
100
AcDbEntity
  8
Ebene_1
 62
1
100
AcDbSpline
 70
8
 71
3
 72
8
 73
4
 74
0
 40
0
 40
0
 40
0
 40
0
 40
1
 40
1
 40
1
 40
1
 10
586.568790
 20
747.674130
 30
0.0
 10
587.447270
 20
745.049610
 30
0.0
 10
588.665390
 20
716.046070
 30
0.0
 10
587.993510
 20
713.979020
 30
0.0
  0
SPLINE
  5
1af
100
AcDbEntity
  8
Ebene_1
 62
1
100
AcDbSpline
 70
8
 71
3
 72
8
 73
4
 74
0
 40
0
 40
0
 40
0
 40
0
 40
1
 40
1
 40
1
 40
1
 10
587.993510
 20
713.979020
 30
0.0
 10
587.561060
 20
712.648550
 30
0.0
 10
588.125020
 20
710.109180
 30
0.0
 10
589.246140
 20
708.335960
 30
0.0
  0
SPLINE
  5
1b0
100
AcDbEntity
  8
Ebene_1
 62
1
100
AcDbSpline
 70
8
 71
3
 72
8
 73
4
 74
0
 40
0
 40
0
 40
0
 40
0
 40
1
 40
1
 40
1
 40
1
 10
589.246140
 20
708.335960
 30
0.0
 10
590.367280
 20
706.562750
 30
0.0
 10
591.005100
 20
702.271670
 30
0.0
 10
590.663630
 20
698.800620
 30
0.0
  0
SPLINE
  5
1b1
100
AcDbEntity
  8
Ebene_1
 62
1
100
AcDbSpline
 70
8
 71
3
 72
8
 73
4
 74
0
 40
0
 40
0
 40
0
 40
0
 40
1
 40
1
 40
1
 40
1
 10
590.663630
 20
698.800620
 30
0.0
 10
589.687230
 20
688.875860
 30
0.0
 10
585.354420
 20
688.685140
 30
0.0
 10
583.178810
 20
698.470410
 30
0.0
  0
SPLINE
  5
1b2
100
AcDbEntity
  8
Ebene_1
 62
1
100
AcDbSpline
 70
8
 71
3
 72
8
 73
4
 74
0
 40
0
 40
0
 40
0
 40
0
 40
1
 40
1
 40
1
 40
1
 10
583.178810
 20
698.470410
 30
0.0
 10
581.841810
 20
703.672500
 30
0.0
 10
584.117450
 20
710.371490
 30
0.0
 10
582.083270
 20
711.302700
 30
0.0
  0
SPLINE
  5
1b3
100
AcDbEntity
  8
Ebene_1
 62
1
100
AcDbSpline
 70
8
 71
3
 72
8
 73
4
 74
0
 40
0
 40
0
 40
0
 40
0
 40
1
 40
1
 40
1
 40
1
 10
582.083270
 20
711.302700
 30
0.0
 10
579.140980
 20
721.008600
 30
0.0
 10
577.256270
 20
738.583240
 30
0.0
 10
578.910860
 20
745.923840
 30
0.0
  0
SPLINE
  5
1b4
100
AcDbEntity
  8
Ebene_1
 62
1
100
AcDbSpline
 70
8
 71
3
 72
8
 73
4
 74
0
 40
0
 40
0
 40
0
 40
0
 40
1
 40
1
 40
1
 40
1
 10
578.910860
 20
745.923840
 30
0.0
 10
574.626500
 20
748.202880
 30
0.0
 10
570.526550
 20
755.066310
 30
0.0
 10
566.793250
 20
766.284880
 30
0.0
  0
SPLINE
  5
1b5
100
AcDbEntity
  8
Ebene_1
 62
1
100
AcDbSpline
 70
8
 71
3
 72
8
 73
4
 74
0
 40
0
 40
0
 40
0
 40
0
 40
1
 40
1
 40
1
 40
1
 10
566.793250
 20
766.284880
 30
0.0
 10
564.315360
 20
773.730960
 30
0.0
 10
561.442930
 20
779.823070
 30
0.0
 10
560.410180
 20
779.823070
 30
0.0
  0
SPLINE
  5
1b6
100
AcDbEntity
  8
Ebene_1
 62
1
100
AcDbSpline
 70
8
 71
3
 72
8
 73
4
 74
0
 40
0
 40
0
 40
0
 40
0
 40
1
 40
1
 40
1
 40
1
 10
560.410180
 20
779.823070
 30
0.0
 10
557.435250
 20
779.823070
 30
0.0
 10
558.160280
 20
775.963240
 30
0.0
 10
563.768630
 20
761.944570
 30
0.0
  0
SPLINE
  5
1b7
100
AcDbEntity
  8
Ebene_1
 62
1
100
AcDbSpline
 70
8
 71
3
 72
8
 73
4
 74
0
 40
0
 40
0
 40
0
 40
0
 40
1
 40
1
 40
1
 40
1
 10
563.768630
 20
761.944570
 30
0.0
 10
567.980150
 20
751.417420
 30
0.0
 10
568.515580
 20
748.265780
 30
0.0
 10
566.503340
 20
745.841160
 30
0.0
  0
SPLINE
  5
1b8
100
AcDbEntity
  8
Ebene_1
 62
1
100
AcDbSpline
 70
8
 71
3
 72
8
 73
4
 74
0
 40
0
 40
0
 40
0
 40
0
 40
1
 40
1
 40
1
 40
1
 10
566.503340
 20
745.841160
 30
0.0
 10
566.410140
 20
745.728830
 30
0.0
 10
566.309930
 20
745.640300
 30
0.0
 10
566.214470
 20
745.535240
 30
0.0
  0
SPLINE
  5
1b9
100
AcDbEntity
  8
Ebene_1
 62
1
100
AcDbSpline
 70
8
 71
3
 72
8
 73
4
 74
0
 40
0
 40
0
 40
0
 40
0
 40
1
 40
1
 40
1
 40
1
 10
566.214470
 20
745.535240
 30
0.0
 10
569.356050
 20
734.748500
 30
0.0
 10
572.325620
 20
703.858530
 30
0.0
 10
569.155380
 20
698.741200
 30
0.0
  0
SPLINE
  5
1ba
100
AcDbEntity
  8
Ebene_1
 62
1
100
AcDbSpline
 70
8
 71
3
 72
8
 73
4
 74
0
 40
0
 40
0
 40
0
 40
0
 40
1
 40
1
 40
1
 40
1
 10
569.155380
 20
698.741200
 30
0.0
 10
568.962040
 20
698.429110
 30
0.0
 10
568.773310
 20
698.181190
 30
0.0
 10
568.583320
 20
697.917470
 30
0.0
  0
SPLINE
  5
1bb
100
AcDbEntity
  8
Ebene_1
 62
1
100
AcDbSpline
 70
8
 71
3
 72
8
 73
4
 74
0
 40
0
 40
0
 40
0
 40
0
 40
1
 40
1
 40
1
 40
1
 10
568.583320
 20
697.917470
 30
0.0
 10
568.782820
 20
697.724720
 30
0.0
 10
568.976650
 20
697.550200
 30
0.0
 10
569.183280
 20
697.333010
 30
0.0
  0
SPLINE
  5
1bc
100
AcDbEntity
  8
Ebene_1
 62
1
100
AcDbSpline
 70
8
 71
3
 72
8
 73
4
 74
0
 40
0
 40
0
 40
0
 40
0
 40
1
 40
1
 40
1
 40
1
 10
569.183280
 20
697.333010
 30
0.0
 10
571.914320
 20
694.462480
 30
0.0
 10
573.729290
 20
684.183060
 30
0.0
 10
571.149060
 20
676.367880
 30
0.0
  0
SPLINE
  5
1bd
100
AcDbEntity
  8
Ebene_1
 62
1
100
AcDbSpline
 70
8
 71
3
 72
8
 73
4
 74
0
 40
0
 40
0
 40
0
 40
0
 40
1
 40
1
 40
1
 40
1
 10
571.149060
 20
676.367880
 30
0.0
 10
569.398880
 20
671.066840
 30
0.0
 10
567.242810
 20
666.969210
 30
0.0
 10
566.357620
 20
667.261460
 30
0.0
  0
SPLINE
  5
1be
100
AcDbEntity
  8
Ebene_1
 62
1
100
AcDbSpline
 70
8
 71
3
 72
8
 73
4
 74
0
 40
0
 40
0
 40
0
 40
0
 40
1
 40
1
 40
1
 40
1
 10
566.357620
 20
667.261460
 30
0.0
 10
565.472400
 20
667.553720
 30
0.0
 10
563.445360
 20
672.811640
 30
0.0
 10
563.400690
 20
679.044210
 30
0.0
  0
SPLINE
  5
1bf
100
AcDbEntity
  8
Ebene_1
 62
1
100
AcDbSpline
 70
8
 71
3
 72
8
 73
4
 74
0
 40
0
 40
0
 40
0
 40
0
 40
1
 40
1
 40
1
 40
1
 10
563.400690
 20
679.044210
 30
0.0
 10
563.335590
 20
688.128850
 30
0.0
 10
562.753700
 20
694.652680
 30
0.0
 10
563.208460
 20
697.906620
 30
0.0
  0
SPLINE
  5
1c0
100
AcDbEntity
  8
Ebene_1
 62
1
100
AcDbSpline
 70
8
 71
3
 72
8
 73
4
 74
0
 40
0
 40
0
 40
0
 40
0
 40
1
 40
1
 40
1
 40
1
 10
563.208460
 20
697.906620
 30
0.0
 10
561.376780
 20
701.386250
 30
0.0
 10
560.038700
 20
709.125820
 30
0.0
 10
559.452100
 20
721.414230
 30
0.0
  0
SPLINE
  5
1c1
100
AcDbEntity
  8
Ebene_1
 62
1
100
AcDbSpline
 70
8
 71
3
 72
8
 73
4
 74
0
 40
0
 40
0
 40
0
 40
0
 40
1
 40
1
 40
1
 40
1
 10
559.452100
 20
721.414230
 30
0.0
 10
558.945020
 20
732.036570
 30
0.0
 10
559.025680
 20
738.988490
 30
0.0
 10
559.498100
 20
743.424260
 30
0.0
  0
SPLINE
  5
1c2
100
AcDbEntity
  8
Ebene_1
 62
1
100
AcDbSpline
 70
8
 71
3
 72
8
 73
4
 74
0
 40
0
 40
0
 40
0
 40
0
 40
1
 40
1
 40
1
 40
1
 10
559.498100
 20
743.424260
 30
0.0
 10
557.142510
 20
744.230500
 30
0.0
 10
555.235240
 20
746.616830
 30
0.0
 10
554.915430
 20
750.179400
 30
0.0
  0
SPLINE
  5
1c3
100
AcDbEntity
  8
Ebene_1
 62
1
100
AcDbSpline
 70
8
 71
3
 72
8
 73
4
 74
0
 40
0
 40
0
 40
0
 40
0
 40
1
 40
1
 40
1
 40
1
 10
554.915430
 20
750.179400
 30
0.0
 10
554.170490
 20
758.477860
 30
0.0
 10
548.278430
 20
777.778750
 30
0.0
 10
546.490110
 20
777.778750
 30
0.0
  0
SPLINE
  5
1c4
100
AcDbEntity
  8
Ebene_1
 62
1
100
AcDbSpline
 70
8
 71
3
 72
8
 73
4
 74
0
 40
0
 40
0
 40
0
 40
0
 40
1
 40
1
 40
1
 40
1
 10
546.490110
 20
777.778750
 30
0.0
 10
544.304960
 20
777.778750
 30
0.0
 10
546.192040
 20
750.818420
 30
0.0
 10
548.739060
 20
745.648930
 30
0.0
  0
SPLINE
  5
1c5
100
AcDbEntity
  8
Ebene_1
 62
1
100
AcDbSpline
 70
8
 71
3
 72
8
 73
4
 74
0
 40
0
 40
0
 40
0
 40
0
 40
1
 40
1
 40
1
 40
1
 10
548.739060
 20
745.648930
 30
0.0
 10
550.503190
 20
742.068410
 30
0.0
 10
549.729900
 20
738.747990
 30
0.0
 10
547.199110
 20
736.758510
 30
0.0
  0
SPLINE
  5
1c6
100
AcDbEntity
  8
Ebene_1
 62
1
100
AcDbSpline
 70
8
 71
3
 72
8
 73
4
 74
0
 40
0
 40
0
 40
0
 40
0
 40
1
 40
1
 40
1
 40
1
 10
547.199110
 20
736.758510
 30
0.0
 10
548.544720
 20
733.352920
 30
0.0
 10
549.616070
 20
727.345460
 30
0.0
 10
549.169530
 20
724.333430
 30
0.0
  0
SPLINE
  5
1c7
100
AcDbEntity
  8
Ebene_1
 62
1
100
AcDbSpline
 70
8
 71
3
 72
8
 73
4
 74
0
 40
0
 40
0
 40
0
 40
0
 40
1
 40
1
 40
1
 40
1
 10
549.169530
 20
724.333430
 30
0.0
 10
548.725910
 20
721.340330
 30
0.0
 10
548.649980
 20
711.904510
 30
0.0
 10
549.000030
 20
703.364690
 30
0.0
  0
SPLINE
  5
1c8
100
AcDbEntity
  8
Ebene_1
 62
1
100
AcDbSpline
 70
8
 71
3
 72
8
 73
4
 74
0
 40
0
 40
0
 40
0
 40
0
 40
1
 40
1
 40
1
 40
1
 10
549.000030
 20
703.364690
 30
0.0
 10
549.274120
 20
696.677950
 30
0.0
 10
549.170230
 20
690.597550
 30
0.0
 10
548.793320
 20
687.871570
 30
0.0
  0
SPLINE
  5
1c9
100
AcDbEntity
  8
Ebene_1
 62
1
100
AcDbSpline
 70
8
 71
3
 72
8
 73
4
 74
0
 40
0
 40
0
 40
0
 40
0
 40
1
 40
1
 40
1
 40
1
 10
548.793320
 20
687.871570
 30
0.0
 10
552.023740
 20
684.007880
 30
0.0
 10
553.606510
 20
671.122190
 30
0.0
 10
551.157000
 20
663.890610
 30
0.0
  0
SPLINE
  5
1ca
100
AcDbEntity
  8
Ebene_1
 62
1
100
AcDbSpline
 70
8
 71
3
 72
8
 73
4
 74
0
 40
0
 40
0
 40
0
 40
0
 40
1
 40
1
 40
1
 40
1
 10
551.157000
 20
663.890610
 30
0.0
 10
546.472910
 20
650.061850
 30
0.0
 10
541.312800
 20
662.449800
 30
0.0
 10
540.448100
 20
682.217660
 30
0.0
  0
SPLINE
  5
1cb
100
AcDbEntity
  8
Ebene_1
 62
1
100
AcDbSpline
 70
8
 71
3
 72
8
 73
4
 74
0
 40
0
 40
0
 40
0
 40
0
 40
1
 40
1
 40
1
 40
1
 10
540.448100
 20
682.217660
 30
0.0
 10
540.357700
 20
684.284420
 30
0.0
 10
541.014330
 20
686.011880
 30
0.0
 10
542.306900
 20
687.273680
 30
0.0
  0
SPLINE
  5
1cc
100
AcDbEntity
  8
Ebene_1
 62
1
100
AcDbSpline
 70
8
 71
3
 72
8
 73
4
 74
0
 40
0
 40
0
 40
0
 40
0
 40
1
 40
1
 40
1
 40
1
 10
542.306900
 20
687.273680
 30
0.0
 10
540.384890
 20
690.854490
 30
0.0
 10
539.421670
 20
699.516530
 30
0.0
 10
539.317420
 20
713.865340
 30
0.0
  0
SPLINE
  5
1cd
100
AcDbEntity
  8
Ebene_1
 62
1
100
AcDbSpline
 70
8
 71
3
 72
8
 73
4
 74
0
 40
0
 40
0
 40
0
 40
0
 40
1
 40
1
 40
1
 40
1
 10
539.317420
 20
713.865340
 30
0.0
 10
539.253320
 20
722.685160
 30
0.0
 10
538.809870
 20
730.555430
 30
0.0
 10
539.724110
 20
734.885240
 30
0.0
  0
SPLINE
  5
1ce
100
AcDbEntity
  8
Ebene_1
 62
1
100
AcDbSpline
 70
8
 71
3
 72
8
 73
4
 74
0
 40
0
 40
0
 40
0
 40
0
 40
1
 40
1
 40
1
 40
1
 10
539.724110
 20
734.885240
 30
0.0
 10
536.289010
 20
735.082080
 30
0.0
 10
536.058680
 20
736.577710
 30
0.0
 10
536.257140
 20
746.601840
 30
0.0
  0
SPLINE
  5
1cf
100
AcDbEntity
  8
Ebene_1
 62
1
100
AcDbSpline
 70
8
 71
3
 72
8
 73
4
 74
0
 40
0
 40
0
 40
0
 40
0
 40
1
 40
1
 40
1
 40
1
 10
536.257140
 20
746.601840
 30
0.0
 10
536.539310
 20
760.854840
 30
0.0
 10
534.283770
 20
773.690110
 30
0.0
 10
531.497220
 20
773.690110
 30
0.0
  0
SPLINE
  5
1d0
100
AcDbEntity
  8
Ebene_1
 62
1
100
AcDbSpline
 70
8
 71
3
 72
8
 73
4
 74
0
 40
0
 40
0
 40
0
 40
0
 40
1
 40
1
 40
1
 40
1
 10
531.497220
 20
773.690110
 30
0.0
 10
529.684300
 20
773.690110
 30
0.0
 10
530.027510
 20
760.900410
 30
0.0
 10
532.375210
 20
740.979440
 30
0.0
  0
LWPOLYLINE
  5
1d1
100
AcDbEntity
  8
Ebene_1
 62
1
100
AcDbPolyline
 90
2
 70
0
 10
586.177080
 20
747.961450
 30
0.0
 10
586.177600
 20
747.961450
 30
0.0
  0
SPLINE
  5
1d2
100
AcDbEntity
  8
Ebene_1
 62
1
100
AcDbSpline
 70
8
 71
3
 72
8
 73
4
 74
0
 40
0
 40
0
 40
0
 40
0
 40
1
 40
1
 40
1
 40
1
 10
532.374210
 20
740.979440
 30
0.0
 10
532.700620
 20
738.209770
 30
0.0
 10
532.502290
 20
736.871490
 30
0.0
 10
530.895750
 20
736.121340
 30
0.0
  0
SPLINE
  5
1d3
100
AcDbEntity
  8
Ebene_1
 62
1
100
AcDbSpline
 70
8
 71
3
 72
8
 73
4
 74
0
 40
0
 40
0
 40
0
 40
0
 40
1
 40
1
 40
1
 40
1
 10
530.895750
 20
736.121340
 30
0.0
 10
533.952050
 20
728.448190
 30
0.0
 10
530.585170
 20
707.441960
 30
0.0
 10
530.585170
 20
707.441960
 30
0.0
  0
SPLINE
  5
1d4
100
AcDbEntity
  8
Ebene_1
 62
1
100
AcDbSpline
 70
8
 71
3
 72
8
 73
4
 74
0
 40
0
 40
0
 40
0
 40
0
 40
1
 40
1
 40
1
 40
1
 10
530.585170
 20
707.441960
 30
0.0
 10
530.345490
 20
698.853970
 30
0.0
 10
529.516530
 20
693.957860
 30
0.0
 10
528.513980
 20
691.256900
 30
0.0
  0
SPLINE
  5
1d5
100
AcDbEntity
  8
Ebene_1
 62
1
100
AcDbSpline
 70
8
 71
3
 72
8
 73
4
 74
0
 40
0
 40
0
 40
0
 40
0
 40
1
 40
1
 40
1
 40
1
 10
528.513980
 20
691.256900
 30
0.0
 10
529.683850
 20
688.773890
 30
0.0
 10
529.911310
 20
680.839570
 30
0.0
 10
529.911310
 20
673.616110
 30
0.0
  0
SPLINE
  5
1d6
100
AcDbEntity
  8
Ebene_1
 62
1
100
AcDbSpline
 70
8
 71
3
 72
8
 73
4
 74
0
 40
0
 40
0
 40
0
 40
0
 40
1
 40
1
 40
1
 40
1
 10
529.911310
 20
673.616110
 30
0.0
 10
529.911310
 20
666.997820
 30
0.0
 10
529.352560
 20
660.127330
 30
0.0
 10
528.670050
 20
658.348830
 30
0.0
  0
SPLINE
  5
1d7
100
AcDbEntity
  8
Ebene_1
 62
1
100
AcDbSpline
 70
8
 71
3
 72
8
 73
4
 74
0
 40
0
 40
0
 40
0
 40
0
 40
1
 40
1
 40
1
 40
1
 10
528.670050
 20
658.348830
 30
0.0
 10
526.687030
 20
653.181130
 30
0.0
 10
524.618760
 20
654.550650
 30
0.0
 10
521.881830
 20
662.843640
 30
0.0
  0
SPLINE
  5
1d8
100
AcDbEntity
  8
Ebene_1
 62
1
100
AcDbSpline
 70
8
 71
3
 72
8
 73
4
 74
0
 40
0
 40
0
 40
0
 40
0
 40
1
 40
1
 40
1
 40
1
 10
521.881830
 20
662.843640
 30
0.0
 10
518.830590
 20
672.088960
 30
0.0
 10
518.990750
 20
687.110110
 30
0.0
 10
522.819760
 20
690.629550
 30
0.0
  0
SPLINE
  5
1d9
100
AcDbEntity
  8
Ebene_1
 62
1
100
AcDbSpline
 70
8
 71
3
 72
8
 73
4
 74
0
 40
0
 40
0
 40
0
 40
0
 40
1
 40
1
 40
1
 40
1
 10
522.819760
 20
690.629550
 30
0.0
 10
522.029420
 20
694.873040
 30
0.0
 10
519.969060
 20
728.851900
 30
0.0
 10
519.649410
 20
735.922390
 30
0.0
  0
SPLINE
  5
1da
100
AcDbEntity
  8
Ebene_1
 62
1
100
AcDbSpline
 70
8
 71
3
 72
8
 73
4
 74
0
 40
0
 40
0
 40
0
 40
0
 40
1
 40
1
 40
1
 40
1
 10
519.649410
 20
735.922390
 30
0.0
 10
519.701610
 20
736.045440
 30
0.0
 10
519.782750
 20
736.162000
 30
0.0
 10
519.874200
 20
736.276370
 30
0.0
  0
SPLINE
  5
1db
100
AcDbEntity
  8
Ebene_1
 62
1
100
AcDbSpline
 70
8
 71
3
 72
8
 73
4
 74
0
 40
0
 40
0
 40
0
 40
0
 40
1
 40
1
 40
1
 40
1
 10
519.874200
 20
736.276370
 30
0.0
 10
518.129460
 20
738.355370
 30
0.0
 10
517.740240
 20
743.604910
 30
0.0
 10
516.926060
 20
756.073100
 30
0.0
  0
SPLINE
  5
1dc
100
AcDbEntity
  8
Ebene_1
 62
1
100
AcDbSpline
 70
8
 71
3
 72
8
 73
4
 74
0
 40
0
 40
0
 40
0
 40
0
 40
1
 40
1
 40
1
 40
1
 10
516.926060
 20
756.073100
 30
0.0
 10
515.686350
 20
775.057520
 30
0.0
 10
513.188820
 20
779.174290
 30
0.0
 10
509.791090
 20
767.833620
 30
0.0
  0
SPLINE
  5
1dd
100
AcDbEntity
  8
Ebene_1
 62
1
100
AcDbSpline
 70
8
 71
3
 72
8
 73
4
 74
0
 40
0
 40
0
 40
0
 40
0
 40
1
 40
1
 40
1
 40
1
 10
509.791090
 20
767.833620
 30
0.0
 10
508.556850
 20
763.714080
 30
0.0
 10
506.824380
 20
760.832570
 30
0.0
 10
504.883380
 20
759.332850
 30
0.0
  0
SPLINE
  5
1de
100
AcDbEntity
  8
Ebene_1
 62
1
100
AcDbSpline
 70
8
 71
3
 72
8
 73
4
 74
0
 40
0
 40
0
 40
0
 40
0
 40
1
 40
1
 40
1
 40
1
 10
504.883380
 20
759.332850
 30
0.0
 10
506.741100
 20
751.013170
 30
0.0
 10
505.766670
 20
726.130970
 30
0.0
 10
502.923810
 20
724.327750
 30
0.0
  0
SPLINE
  5
1df
100
AcDbEntity
  8
Ebene_1
 62
1
100
AcDbSpline
 70
8
 71
3
 72
8
 73
4
 74
0
 40
0
 40
0
 40
0
 40
0
 40
1
 40
1
 40
1
 40
1
 10
502.923810
 20
724.327750
 30
0.0
 10
502.538230
 20
724.083160
 30
0.0
 10
502.174130
 20
723.872920
 30
0.0
 10
501.815350
 20
723.670940
 30
0.0
  0
SPLINE
  5
1e0
100
AcDbEntity
  8
Ebene_1
 62
1
100
AcDbSpline
 70
8
 71
3
 72
8
 73
4
 74
0
 40
0
 40
0
 40
0
 40
0
 40
1
 40
1
 40
1
 40
1
 10
501.815350
 20
723.670940
 30
0.0
 10
504.196360
 20
722.185390
 30
0.0
 10
505.600650
 20
719.384370
 30
0.0
 10
505.600650
 20
714.451860
 30
0.0
  0
SPLINE
  5
1e1
100
AcDbEntity
  8
Ebene_1
 62
1
100
AcDbSpline
 70
8
 71
3
 72
8
 73
4
 74
0
 40
0
 40
0
 40
0
 40
0
 40
1
 40
1
 40
1
 40
1
 10
505.600650
 20
714.451860
 30
0.0
 10
505.600650
 20
708.928970
 30
0.0
 10
502.072890
 20
707.520180
 30
0.0
 10
498.718390
 20
712.152260
 30
0.0
  0
SPLINE
  5
1e2
100
AcDbEntity
  8
Ebene_1
 62
1
100
AcDbSpline
 70
8
 71
3
 72
8
 73
4
 74
0
 40
0
 40
0
 40
0
 40
0
 40
1
 40
1
 40
1
 40
1
 10
498.718390
 20
712.152260
 30
0.0
 10
495.831790
 20
716.138220
 30
0.0
 10
494.561190
 20
720.805560
 30
0.0
 10
495.549070
 20
723.228070
 30
0.0
  0
SPLINE
  5
1e3
100
AcDbEntity
  8
Ebene_1
 62
1
100
AcDbSpline
 70
8
 71
3
 72
8
 73
4
 74
0
 40
0
 40
0
 40
0
 40
0
 40
1
 40
1
 40
1
 40
1
 10
495.549070
 20
723.228070
 30
0.0
 10
493.798390
 20
725.013980
 30
0.0
 10
493.112010
 20
729.441350
 30
0.0
 10
493.112010
 20
737.085620
 30
0.0
  0
SPLINE
  5
1e4
100
AcDbEntity
  8
Ebene_1
 62
1
100
AcDbSpline
 70
8
 71
3
 72
8
 73
4
 74
0
 40
0
 40
0
 40
0
 40
0
 40
1
 40
1
 40
1
 40
1
 10
493.112010
 20
737.085620
 30
0.0
 10
493.112010
 20
744.759250
 30
0.0
 10
495.536380
 20
754.569400
 30
0.0
 10
498.484810
 20
759.366440
 30
0.0
  0
SPLINE
  5
1e5
100
AcDbEntity
  8
Ebene_1
 62
1
100
AcDbSpline
 70
8
 71
3
 72
8
 73
4
 74
0
 40
0
 40
0
 40
0
 40
0
 40
1
 40
1
 40
1
 40
1
 10
498.484810
 20
759.366440
 30
0.0
 10
498.193140
 20
759.590800
 30
0.0
 10
497.903200
 20
759.843650
 30
0.0
 10
497.615610
 20
760.131250
 30
0.0
  0
SPLINE
  5
1e6
100
AcDbEntity
  8
Ebene_1
 62
1
100
AcDbSpline
 70
8
 71
3
 72
8
 73
4
 74
0
 40
0
 40
0
 40
0
 40
0
 40
1
 40
1
 40
1
 40
1
 10
497.615610
 20
760.131250
 30
0.0
 10
495.049140
 20
762.697710
 30
0.0
 10
495.126100
 20
764.276170
 30
0.0
 10
498.210920
 20
772.353760
 30
0.0
  0
SPLINE
  5
1e7
100
AcDbEntity
  8
Ebene_1
 62
1
100
AcDbSpline
 70
8
 71
3
 72
8
 73
4
 74
0
 40
0
 40
0
 40
0
 40
0
 40
1
 40
1
 40
1
 40
1
 10
498.210920
 20
772.353760
 30
0.0
 10
502.125010
 20
782.602630
 30
0.0
 10
507.969230
 20
785.956030
 30
0.0
 10
521.916970
 20
785.956030
 30
0.0
  0
SPLINE
  5
1e8
100
AcDbEntity
  8
Ebene_1
 62
1
100
AcDbSpline
 70
8
 71
3
 72
8
 73
4
 74
0
 40
0
 40
0
 40
0
 40
0
 40
1
 40
1
 40
1
 40
1
 10
521.916970
 20
785.956030
 30
0.0
 10
530.822320
 20
785.956030
 30
0.0
 10
531.891730
 20
787.066660
 30
0.0
 10
529.791940
 20
794.133820
 30
0.0
  0
SPLINE
  5
1e9
100
AcDbEntity
  8
Ebene_1
 62
1
100
AcDbSpline
 70
8
 71
3
 72
8
 73
4
 74
0
 40
0
 40
0
 40
0
 40
0
 40
1
 40
1
 40
1
 40
1
 10
529.791940
 20
794.133820
 30
0.0
 10
528.849170
 20
797.306880
 30
0.0
 10
528.196120
 20
797.915390
 30
0.0
 10
528.069570
 20
795.738890
 30
0.0
  0
SPLINE
  5
1ea
100
AcDbEntity
  8
Ebene_1
 62
1
100
AcDbSpline
 70
8
 71
3
 72
8
 73
4
 74
0
 40
0
 40
0
 40
0
 40
0
 40
1
 40
1
 40
1
 40
1
 10
528.069570
 20
795.738890
 30
0.0
 10
527.783050
 20
790.809930
 30
0.0
 10
520.849340
 20
787.653460
 30
0.0
 10
511.935150
 20
788.393600
 30
0.0
  0
SPLINE
  5
1eb
100
AcDbEntity
  8
Ebene_1
 62
1
100
AcDbSpline
 70
8
 71
3
 72
8
 73
4
 74
0
 40
0
 40
0
 40
0
 40
0
 40
1
 40
1
 40
1
 40
1
 10
511.935150
 20
788.393600
 30
0.0
 10
505.258130
 20
788.947970
 30
0.0
 10
504.420950
 20
789.615110
 30
0.0
 10
504.908190
 20
793.995850
 30
0.0
  0
SPLINE
  5
1ec
100
AcDbEntity
  8
Ebene_1
 62
1
100
AcDbSpline
 70
8
 71
3
 72
8
 73
4
 74
0
 40
0
 40
0
 40
0
 40
0
 40
1
 40
1
 40
1
 40
1
 10
504.908190
 20
793.995850
 30
0.0
 10
518.287770
 20
820.007390
 30
0.0
 10
537.516510
 20
812.721870
 30
0.0
 10
520.674670
 20
817.486400
 30
0.0
  0
SPLINE
  5
1ed
100
AcDbEntity
  8
Ebene_1
 62
1
100
AcDbSpline
 70
8
 71
3
 72
8
 73
4
 74
0
 40
0
 40
0
 40
0
 40
0
 40
1
 40
1
 40
1
 40
1
 10
520.674670
 20
817.486400
 30
0.0
 10
516.985200
 20
818.902180
 30
0.0
 10
516.955630
 20
830.024730
 30
0.0
 10
521.002810
 20
836.201540
 30
0.0
  0
SPLINE
  5
1ee
100
AcDbEntity
  8
Ebene_1
 62
1
100
AcDbSpline
 70
8
 71
3
 72
8
 73
4
 74
0
 40
0
 40
0
 40
0
 40
0
 40
1
 40
1
 40
1
 40
1
 10
521.002810
 20
836.201540
 30
0.0
 10
523.966460
 20
840.724650
 30
0.0
 10
524.091860
 20
843.777180
 30
0.0
 10
522.069410
 20
862.195820
 30
0.0
  0
SPLINE
  5
1ef
100
AcDbEntity
  8
Ebene_1
 62
1
100
AcDbSpline
 70
8
 71
3
 72
8
 73
4
 74
0
 40
0
 40
0
 40
0
 40
0
 40
1
 40
1
 40
1
 40
1
 10
522.069410
 20
862.195820
 30
0.0
 10
520.809100
 20
873.673850
 30
0.0
 10
519.346260
 20
895.944550
 30
0.0
 10
518.818970
 20
911.686340
 30
0.0
  0
SPLINE
  5
1f0
100
AcDbEntity
  8
Ebene_1
 62
1
100
AcDbSpline
 70
8
 71
3
 72
8
 73
4
 74
0
 40
0
 40
0
 40
0
 40
0
 40
1
 40
1
 40
1
 40
1
 10
518.818970
 20
911.686340
 30
0.0
 10
518.291680
 20
927.428140
 30
0.0
 10
516.388420
 20
952.267670
 30
0.0
 10
514.589250
 20
966.885030
 30
0.0
  0
SPLINE
  5
1f1
100
AcDbEntity
  8
Ebene_1
 62
1
100
AcDbSpline
 70
8
 71
3
 72
8
 73
4
 74
0
 40
0
 40
0
 40
0
 40
0
 40
1
 40
1
 40
1
 40
1
 10
514.589250
 20
966.885030
 30
0.0
 10
512.426140
 20
984.459190
 30
0.0
 10
511.763890
 20
999.694890
 30
0.0
 10
512.634330
 20
1011.861620
 30
0.0
  0
SPLINE
  5
1f2
100
AcDbEntity
  8
Ebene_1
 62
1
100
AcDbSpline
 70
8
 71
3
 72
8
 73
4
 74
0
 40
0
 40
0
 40
0
 40
0
 40
1
 40
1
 40
1
 40
1
 10
512.634330
 20
1011.861620
 30
0.0
 10
513.830400
 20
1028.579990
 30
0.0
 10
513.558910
 20
1030.757790
 30
0.0
 10
509.664490
 20
1035.694790
 30
0.0
  0
SPLINE
  5
1f3
100
AcDbEntity
  8
Ebene_1
 62
1
100
AcDbSpline
 70
8
 71
3
 72
8
 73
4
 74
0
 40
0
 40
0
 40
0
 40
0
 40
1
 40
1
 40
1
 40
1
 10
509.664490
 20
1035.694790
 30
0.0
 10
500.687850
 20
1047.805430
 30
0.0
 10
507.363860
 20
1061.510920
 30
0.0
 10
522.769110
 20
1061.588810
 30
0.0
  0
SPLINE
  5
1f4
100
AcDbEntity
  8
Ebene_1
 62
1
100
AcDbSpline
 70
8
 71
3
 72
8
 73
4
 74
0
 40
0
 40
0
 40
0
 40
0
 40
1
 40
1
 40
1
 40
1
 10
522.769110
 20
1061.588810
 30
0.0
 10
529.493490
 20
1061.184880
 30
0.0
 10
520.356990
 20
1078.649600
 30
0.0
 10
525.198420
 20
1080.999000
 30
0.0
  0
SPLINE
  5
1f5
100
AcDbEntity
  8
Ebene_1
 62
1
100
AcDbSpline
 70
8
 71
3
 72
8
 73
4
 74
0
 40
0
 40
0
 40
0
 40
0
 40
1
 40
1
 40
1
 40
1
 10
525.198420
 20
1080.999000
 30
0.0
 10
530.752690
 20
1083.694310
 30
0.0
 10
535.192940
 20
1084.826060
 30
0.0
 10
538.761420
 20
1085.000820
 30
0.0
  0
LWPOLYLINE
  5
1f6
100
AcDbEntity
  8
Ebene_1
 62
1
100
AcDbPolyline
 90
2
 70
0
 10
532.375210
 20
740.979440
 30
0.0
 10
532.374210
 20
740.979440
 30
0.0
  0
SPLINE
  5
1f7
100
AcDbEntity
  8
Ebene_1
 62
1
100
AcDbSpline
 70
8
 71
3
 72
8
 73
4
 74
0
 40
0
 40
0
 40
0
 40
0
 40
1
 40
1
 40
1
 40
1
 10
586.177580
 20
747.961410
 30
0.0
 10
586.181580
 20
747.975310
 30
0.0
 10
586.185580
 20
747.988810
 30
0.0
 10
586.189980
 20
748.002710
 30
0.0
  0
SPLINE
  5
1f8
100
AcDbEntity
  8
Ebene_1
 62
1
100
AcDbSpline
 70
8
 71
3
 72
8
 73
4
 74
0
 40
0
 40
0
 40
0
 40
0
 40
1
 40
1
 40
1
 40
1
 10
586.189980
 20
748.002710
 30
0.0
 10
586.197980
 20
748.003710
 30
0.0
 10
586.186980
 20
748.010710
 30
0.0
 10
586.198980
 20
748.010710
 30
0.0
  0
SPLINE
  5
1f9
100
AcDbEntity
  8
Ebene_1
 62
1
100
AcDbSpline
 70
8
 71
3
 72
8
 73
4
 74
0
 40
0
 40
0
 40
0
 40
0
 40
1
 40
1
 40
1
 40
1
 10
586.198980
 20
748.010710
 30
0.0
 10
586.341430
 20
748.010710
 30
0.0
 10
586.301470
 20
747.987510
 30
0.0
 10
586.177780
 20
747.961610
 30
0.0
  0
LWPOLYLINE
  5
1fa
100
AcDbEntity
  8
Ebene_1
 62
1
100
AcDbPolyline
 90
1
 70
1
 10
538.761420
 20
1085.000820
 30
0.0
  0
SPLINE
  5
1fb
100
AcDbEntity
  8
Ebene_1
 62
1
100
AcDbSpline
 70
8
 71
3
 72
8
 73
4
 74
0
 40
0
 40
0
 40
0
 40
0
 40
1
 40
1
 40
1
 40
1
 10
532.009310
 20
1048.988510
 30
0.0
 10
529.866650
 20
1048.898810
 30
0.0
 10
528.879490
 20
1047.317260
 30
0.0
 10
529.686970
 20
1044.134540
 30
0.0
  0
SPLINE
  5
1fc
100
AcDbEntity
  8
Ebene_1
 62
1
100
AcDbSpline
 70
8
 71
3
 72
8
 73
4
 74
0
 40
0
 40
0
 40
0
 40
0
 40
1
 40
1
 40
1
 40
1
 10
529.686970
 20
1044.134540
 30
0.0
 10
532.329310
 20
1033.719580
 30
0.0
 10
524.803760
 20
1026.069950
 30
0.0
 10
529.672970
 20
1011.285900
 30
0.0
  0
SPLINE
  5
1fd
100
AcDbEntity
  8
Ebene_1
 62
1
100
AcDbSpline
 70
8
 71
3
 72
8
 73
4
 74
0
 40
0
 40
0
 40
0
 40
0
 40
1
 40
1
 40
1
 40
1
 10
529.672970
 20
1011.285900
 30
0.0
 10
534.014230
 20
998.105100
 30
0.0
 10
535.819930
 20
976.573100
 30
0.0
 10
536.826540
 20
925.997050
 30
0.0
  0
SPLINE
  5
1fe
100
AcDbEntity
  8
Ebene_1
 62
1
100
AcDbSpline
 70
8
 71
3
 72
8
 73
4
 74
0
 40
0
 40
0
 40
0
 40
0
 40
1
 40
1
 40
1
 40
1
 10
536.826540
 20
925.997050
 30
0.0
 10
537.573430
 20
888.470610
 30
0.0
 10
540.305320
 20
855.186490
 30
0.0
 10
546.547400
 20
845.369930
 30
0.0
  0
SPLINE
  5
1ff
100
AcDbEntity
  8
Ebene_1
 62
1
100
AcDbSpline
 70
8
 71
3
 72
8
 73
4
 74
0
 40
0
 40
0
 40
0
 40
0
 40
1
 40
1
 40
1
 40
1
 10
546.547400
 20
845.369930
 30
0.0
 10
550.406890
 20
839.300320
 30
0.0
 10
549.504880
 20
826.914700
 30
0.0
 10
550.271200
 20
829.158000
 30
0.0
  0
SPLINE
  5
200
100
AcDbEntity
  8
Ebene_1
 62
1
100
AcDbSpline
 70
8
 71
3
 72
8
 73
4
 74
0
 40
0
 40
0
 40
0
 40
0
 40
1
 40
1
 40
1
 40
1
 10
550.271200
 20
829.158000
 30
0.0
 10
552.952320
 20
833.633050
 30
0.0
 10
550.646890
 20
837.195970
 30
0.0
 10
551.166750
 20
853.485710
 30
0.0
  0
SPLINE
  5
201
100
AcDbEntity
  8
Ebene_1
 62
1
100
AcDbSpline
 70
8
 71
3
 72
8
 73
4
 74
0
 40
0
 40
0
 40
0
 40
0
 40
1
 40
1
 40
1
 40
1
 10
551.166750
 20
853.485710
 30
0.0
 10
548.184810
 20
888.979890
 30
0.0
 10
547.532280
 20
922.491510
 30
0.0
 10
542.127510
 20
955.640720
 30
0.0
  0
SPLINE
  5
202
100
AcDbEntity
  8
Ebene_1
 62
1
100
AcDbSpline
 70
8
 71
3
 72
8
 73
4
 74
0
 40
0
 40
0
 40
0
 40
0
 40
1
 40
1
 40
1
 40
1
 10
542.127510
 20
955.640720
 30
0.0
 10
537.595970
 20
982.283800
 30
0.0
 10
536.123840
 20
997.158820
 30
0.0
 10
536.361460
 20
1013.905900
 30
0.0
  0
SPLINE
  5
203
100
AcDbEntity
  8
Ebene_1
 62
1
100
AcDbSpline
 70
8
 71
3
 72
8
 73
4
 74
0
 40
0
 40
0
 40
0
 40
0
 40
1
 40
1
 40
1
 40
1
 10
536.361460
 20
1013.905900
 30
0.0
 10
536.536970
 20
1026.274440
 30
0.0
 10
536.866580
 20
1039.841800
 30
0.0
 10
536.006440
 20
1044.055480
 30
0.0
  0
SPLINE
  5
204
100
AcDbEntity
  8
Ebene_1
 62
1
100
AcDbSpline
 70
8
 71
3
 72
8
 73
4
 74
0
 40
0
 40
0
 40
0
 40
0
 40
1
 40
1
 40
1
 40
1
 10
536.006440
 20
1044.055480
 30
0.0
 10
535.651710
 20
1045.793220
 30
0.0
 10
535.578860
 20
1048.584790
 30
0.0
 10
532.996290
 20
1048.935800
 30
0.0
  0
SPLINE
  5
205
100
AcDbEntity
  8
Ebene_1
 62
1
100
AcDbSpline
 70
8
 71
3
 72
8
 73
4
 74
0
 40
0
 40
0
 40
0
 40
0
 40
1
 40
1
 40
1
 40
1
 10
532.996290
 20
1048.935800
 30
0.0
 10
532.644910
 20
1048.983600
 30
0.0
 10
532.315360
 20
1049.001300
 30
0.0
 10
532.009270
 20
1048.988500
 30
0.0
  0
LWPOLYLINE
  5
206
100
AcDbEntity
  8
Ebene_1
 62
1
100
AcDbPolyline
 90
2
 70
0
 10
586.177780
 20
747.961610
 30
0.0
 10
586.177580
 20
747.961410
 30
0.0
  0
SPLINE
  5
207
100
AcDbEntity
  8
Ebene_1
 62
1
100
AcDbSpline
 70
8
 71
3
 72
8
 73
4
 74
0
 40
0
 40
0
 40
0
 40
0
 40
1
 40
1
 40
1
 40
1
 10
538.611490
 20
829.932630
 30
0.0
 10
537.236880
 20
830.031130
 30
0.0
 10
535.581420
 20
829.551430
 30
0.0
 10
533.618510
 20
828.277950
 30
0.0
  0
SPLINE
  5
208
100
AcDbEntity
  8
Ebene_1
 62
1
100
AcDbSpline
 70
8
 71
3
 72
8
 73
4
 74
0
 40
0
 40
0
 40
0
 40
0
 40
1
 40
1
 40
1
 40
1
 10
533.618510
 20
828.277950
 30
0.0
 10
529.348830
 20
826.121290
 30
0.0
 10
532.266790
 20
820.676430
 30
0.0
 10
535.253040
 20
816.527760
 30
0.0
  0
SPLINE
  5
209
100
AcDbEntity
  8
Ebene_1
 62
1
100
AcDbSpline
 70
8
 71
3
 72
8
 73
4
 74
0
 40
0
 40
0
 40
0
 40
0
 40
1
 40
1
 40
1
 40
1
 10
535.253040
 20
816.527760
 30
0.0
 10
544.090100
 20
800.203880
 30
0.0
 10
548.233730
 20
829.242810
 30
0.0
 10
538.611490
 20
829.932630
 30
0.0
  0
LWPOLYLINE
  5
20a
100
AcDbEntity
  8
Ebene_1
 62
1
100
AcDbPolyline
 90
1
 70
1
 10
532.009270
 20
1048.988500
 30
0.0
  0
SPLINE
  5
20b
100
AcDbEntity
  8
Ebene_1
 62
1
100
AcDbSpline
 70
8
 71
3
 72
8
 73
4
 74
0
 40
0
 40
0
 40
0
 40
0
 40
1
 40
1
 40
1
 40
1
 10
253.609990
 20
61.835780
 30
0.0
 10
256.774790
 20
55.922280
 30
0.0
 10
255.467950
 20
47.228380
 30
0.0
 10
251.094390
 20
45.101880
 30
0.0
  0
SPLINE
  5
20c
100
AcDbEntity
  8
Ebene_1
 62
1
100
AcDbSpline
 70
8
 71
3
 72
8
 73
4
 74
0
 40
0
 40
0
 40
0
 40
0
 40
1
 40
1
 40
1
 40
1
 10
251.094390
 20
45.101880
 30
0.0
 10
249.126660
 20
44.145180
 30
0.0
 10
245.906470
 20
42.423780
 30
0.0
 10
243.938750
 20
41.276780
 30
0.0
  0
SPLINE
  5
20d
100
AcDbEntity
  8
Ebene_1
 62
1
100
AcDbSpline
 70
8
 71
3
 72
8
 73
4
 74
0
 40
0
 40
0
 40
0
 40
0
 40
1
 40
1
 40
1
 40
1
 10
243.938750
 20
41.276780
 30
0.0
 10
241.971020
 20
40.129680
 30
0.0
 10
237.601480
 20
37.856580
 30
0.0
 10
234.228230
 20
36.225380
 30
0.0
  0
SPLINE
  5
20e
100
AcDbEntity
  8
Ebene_1
 62
1
100
AcDbSpline
 70
8
 71
3
 72
8
 73
4
 74
0
 40
0
 40
0
 40
0
 40
0
 40
1
 40
1
 40
1
 40
1
 10
234.228230
 20
36.225380
 30
0.0
 10
230.854990
 20
34.594180
 30
0.0
 10
222.637840
 20
28.252480
 30
0.0
 10
215.968360
 20
22.132780
 30
0.0
  0
SPLINE
  5
20f
100
AcDbEntity
  8
Ebene_1
 62
1
100
AcDbSpline
 70
8
 71
3
 72
8
 73
4
 74
0
 40
0
 40
0
 40
0
 40
0
 40
1
 40
1
 40
1
 40
1
 10
215.968360
 20
22.132780
 30
0.0
 10
209.298890
 20
16.013080
 30
0.0
 10
199.888990
 20
9.031980
 30
0.0
 10
195.057500
 20
6.618980
 30
0.0
  0
SPLINE
  5
210
100
AcDbEntity
  8
Ebene_1
 62
1
100
AcDbSpline
 70
8
 71
3
 72
8
 73
4
 74
0
 40
0
 40
0
 40
0
 40
0
 40
1
 40
1
 40
1
 40
1
 10
195.057500
 20
6.618980
 30
0.0
 10
184.383380
 20
1.288080
 30
0.0
 10
173.962164
 20
-0.454420
 30
0.0
 10
169.829578
 20
2.400580
 30
0.0
  0
SPLINE
  5
211
100
AcDbEntity
  8
Ebene_1
 62
1
100
AcDbSpline
 70
8
 71
3
 72
8
 73
4
 74
0
 40
0
 40
0
 40
0
 40
0
 40
1
 40
1
 40
1
 40
1
 10
169.829578
 20
2.400580
 30
0.0
 10
167.103721
 20
4.283680
 30
0.0
 10
167.103721
 20
4.742780
 30
0.0
 10
169.829578
 20
6.532180
 30
0.0
  0
SPLINE
  5
212
100
AcDbEntity
  8
Ebene_1
 62
1
100
AcDbSpline
 70
8
 71
3
 72
8
 73
4
 74
0
 40
0
 40
0
 40
0
 40
0
 40
1
 40
1
 40
1
 40
1
 10
169.829578
 20
6.532180
 30
0.0
 10
171.516197
 20
7.639380
 30
0.0
 10
174.527512
 20
8.560480
 30
0.0
 10
176.521160
 20
8.576480
 30
0.0
  0
SPLINE
  5
213
100
AcDbEntity
  8
Ebene_1
 62
1
100
AcDbSpline
 70
8
 71
3
 72
8
 73
4
 74
0
 40
0
 40
0
 40
0
 40
0
 40
1
 40
1
 40
1
 40
1
 10
176.521160
 20
8.576480
 30
0.0
 10
191.623456
 20
17.073380
 30
0.0
 10
235.937380
 20
65.567680
 30
0.0
 10
204.606270
 20
36.649180
 30
0.0
  0
SPLINE
  5
214
100
AcDbEntity
  8
Ebene_1
 62
1
100
AcDbSpline
 70
8
 71
3
 72
8
 73
4
 74
0
 40
0
 40
0
 40
0
 40
0
 40
1
 40
1
 40
1
 40
1
 10
204.606270
 20
36.649180
 30
0.0
 10
190.720964
 20
23.793480
 30
0.0
 10
175.194997
 20
14.584780
 30
0.0
 10
162.674460
 20
11.778880
 30
0.0
  0
SPLINE
  5
215
100
AcDbEntity
  8
Ebene_1
 62
1
100
AcDbSpline
 70
8
 71
3
 72
8
 73
4
 74
0
 40
0
 40
0
 40
0
 40
0
 40
1
 40
1
 40
1
 40
1
 10
162.674460
 20
11.778880
 30
0.0
 10
147.312895
 20
8.336280
 30
0.0
 10
146.039120
 20
8.316880
 30
0.0
 10
143.410002
 20
11.484780
 30
0.0
  0
SPLINE
  5
216
100
AcDbEntity
  8
Ebene_1
 62
1
100
AcDbSpline
 70
8
 71
3
 72
8
 73
4
 74
0
 40
0
 40
0
 40
0
 40
0
 40
1
 40
1
 40
1
 40
1
 10
143.410002
 20
11.484780
 30
0.0
 10
141.061415
 20
14.314680
 30
0.0
 10
142.928691
 20
15.719080
 30
0.0
 10
158.645765
 20
22.946080
 30
0.0
  0
SPLINE
  5
217
100
AcDbEntity
  8
Ebene_1
 62
1
100
AcDbSpline
 70
8
 71
3
 72
8
 73
4
 74
0
 40
0
 40
0
 40
0
 40
0
 40
1
 40
1
 40
1
 40
1
 10
158.645765
 20
22.946080
 30
0.0
 10
175.722848
 20
30.798380
 30
0.0
 10
214.810860
 20
57.296880
 30
0.0
 10
164.692657
 20
31.777080
 30
0.0
  0
SPLINE
  5
218
100
AcDbEntity
  8
Ebene_1
 62
1
100
AcDbSpline
 70
8
 71
3
 72
8
 73
4
 74
0
 40
0
 40
0
 40
0
 40
0
 40
1
 40
1
 40
1
 40
1
 10
164.692657
 20
31.777080
 30
0.0
 10
159.025261
 20
28.664580
 30
0.0
 10
133.744089
 20
20.298480
 30
0.0
 10
135.075111
 20
27.861080
 30
0.0
  0
SPLINE
  5
219
100
AcDbEntity
  8
Ebene_1
 62
1
100
AcDbSpline
 70
8
 71
3
 72
8
 73
4
 74
0
 40
0
 40
0
 40
0
 40
0
 40
1
 40
1
 40
1
 40
1
 10
135.075111
 20
27.861080
 30
0.0
 10
136.388248
 20
33.092380
 30
0.0
 10
164.702798
 20
40.988280
 30
0.0
 10
174.458314
 20
46.002080
 30
0.0
  0
SPLINE
  5
21a
100
AcDbEntity
  8
Ebene_1
 62
1
100
AcDbSpline
 70
8
 71
3
 72
8
 73
4
 74
0
 40
0
 40
0
 40
0
 40
0
 40
1
 40
1
 40
1
 40
1
 10
174.458314
 20
46.002080
 30
0.0
 10
197.297530
 20
57.740080
 30
0.0
 10
204.812180
 20
59.536780
 30
0.0
 10
207.371710
 20
64.319280
 30
0.0
  0
SPLINE
  5
21b
100
AcDbEntity
  8
Ebene_1
 62
1
100
AcDbSpline
 70
8
 71
3
 72
8
 73
4
 74
0
 40
0
 40
0
 40
0
 40
0
 40
1
 40
1
 40
1
 40
1
 10
207.371710
 20
64.319280
 30
0.0
 10
208.580010
 20
66.576980
 30
0.0
 10
214.147790
 20
71.983980
 30
0.0
 10
215.665540
 20
71.983980
 30
0.0
  0
SPLINE
  5
21c
100
AcDbEntity
  8
Ebene_1
 62
1
100
AcDbSpline
 70
8
 71
3
 72
8
 73
4
 74
0
 40
0
 40
0
 40
0
 40
0
 40
1
 40
1
 40
1
 40
1
 10
215.665540
 20
71.983980
 30
0.0
 10
217.183280
 20
71.983980
 30
0.0
 10
219.931840
 20
74.283780
 30
0.0
 10
221.773690
 20
77.094780
 30
0.0
  0
SPLINE
  5
21d
100
AcDbEntity
  8
Ebene_1
 62
1
100
AcDbSpline
 70
8
 71
3
 72
8
 73
4
 74
0
 40
0
 40
0
 40
0
 40
0
 40
1
 40
1
 40
1
 40
1
 10
221.773690
 20
77.094780
 30
0.0
 10
224.051210
 20
80.570780
 30
0.0
 10
226.989330
 20
82.205580
 30
0.0
 10
230.958150
 20
82.205580
 30
0.0
  0
SPLINE
  5
21e
100
AcDbEntity
  8
Ebene_1
 62
1
100
AcDbSpline
 70
8
 71
3
 72
8
 73
4
 74
0
 40
0
 40
0
 40
0
 40
0
 40
1
 40
1
 40
1
 40
1
 10
230.958150
 20
82.205580
 30
0.0
 10
238.229230
 20
82.205580
 30
0.0
 10
241.619180
 20
86.099180
 30
0.0
 10
241.034020
 20
93.778980
 30
0.0
  0
SPLINE
  5
21f
100
AcDbEntity
  8
Ebene_1
 62
1
100
AcDbSpline
 70
8
 71
3
 72
8
 73
4
 74
0
 40
0
 40
0
 40
0
 40
0
 40
1
 40
1
 40
1
 40
1
 10
241.034020
 20
93.778980
 30
0.0
 10
240.370160
 20
102.491080
 30
0.0
 10
242.672570
 20
104.694080
 30
0.0
 10
252.443140
 20
104.694080
 30
0.0
  0
SPLINE
  5
220
100
AcDbEntity
  8
Ebene_1
 62
1
100
AcDbSpline
 70
8
 71
3
 72
8
 73
4
 74
0
 40
0
 40
0
 40
0
 40
0
 40
1
 40
1
 40
1
 40
1
 10
252.443140
 20
104.694080
 30
0.0
 10
264.246790
 20
104.694080
 30
0.0
 10
274.093500
 20
101.067180
 30
0.0
 10
274.093500
 20
96.719380
 30
0.0
  0
SPLINE
  5
221
100
AcDbEntity
  8
Ebene_1
 62
1
100
AcDbSpline
 70
8
 71
3
 72
8
 73
4
 74
0
 40
0
 40
0
 40
0
 40
0
 40
1
 40
1
 40
1
 40
1
 10
274.093500
 20
96.719380
 30
0.0
 10
274.093500
 20
94.802080
 30
0.0
 10
270.435460
 20
90.136580
 30
0.0
 10
273.140880
 20
85.198580
 30
0.0
  0
SPLINE
  5
222
100
AcDbEntity
  8
Ebene_1
 62
1
100
AcDbSpline
 70
8
 71
3
 72
8
 73
4
 74
0
 40
0
 40
0
 40
0
 40
0
 40
1
 40
1
 40
1
 40
1
 10
273.140880
 20
85.198580
 30
0.0
 10
276.292790
 20
88.869880
 30
0.0
 10
282.035940
 20
86.214880
 30
0.0
 10
289.235210
 20
86.259580
 30
0.0
  0
SPLINE
  5
223
100
AcDbEntity
  8
Ebene_1
 62
1
100
AcDbSpline
 70
8
 71
3
 72
8
 73
4
 74
0
 40
0
 40
0
 40
0
 40
0
 40
1
 40
1
 40
1
 40
1
 10
289.235210
 20
86.259580
 30
0.0
 10
293.554770
 20
86.286580
 30
0.0
 10
297.037010
 20
85.443280
 30
0.0
 10
297.785080
 20
83.493880
 30
0.0
  0
SPLINE
  5
224
100
AcDbEntity
  8
Ebene_1
 62
1
100
AcDbSpline
 70
8
 71
3
 72
8
 73
4
 74
0
 40
0
 40
0
 40
0
 40
0
 40
1
 40
1
 40
1
 40
1
 10
297.785080
 20
83.493880
 30
0.0
 10
299.750140
 20
78.372980
 30
0.0
 10
289.893980
 20
64.891080
 30
0.0
 10
280.515850
 20
59.872080
 30
0.0
  0
SPLINE
  5
225
100
AcDbEntity
  8
Ebene_1
 62
1
100
AcDbSpline
 70
8
 71
3
 72
8
 73
4
 74
0
 40
0
 40
0
 40
0
 40
0
 40
1
 40
1
 40
1
 40
1
 10
280.515850
 20
59.872080
 30
0.0
 10
278.255810
 20
58.662580
 30
0.0
 10
275.524990
 20
57.673180
 30
0.0
 10
274.446970
 20
57.673180
 30
0.0
  0
SPLINE
  5
226
100
AcDbEntity
  8
Ebene_1
 62
1
100
AcDbSpline
 70
8
 71
3
 72
8
 73
4
 74
0
 40
0
 40
0
 40
0
 40
0
 40
1
 40
1
 40
1
 40
1
 10
274.446970
 20
57.673180
 30
0.0
 10
271.892990
 20
57.673180
 30
0.0
 10
269.639160
 20
63.604980
 30
0.0
 10
270.927350
 20
66.140380
 30
0.0
  0
SPLINE
  5
227
100
AcDbEntity
  8
Ebene_1
 62
1
100
AcDbSpline
 70
8
 71
3
 72
8
 73
4
 74
0
 40
0
 40
0
 40
0
 40
0
 40
1
 40
1
 40
1
 40
1
 10
270.927350
 20
66.140380
 30
0.0
 10
266.635010
 20
69.435380
 30
0.0
 10
250.830750
 20
67.028880
 30
0.0
 10
253.609990
 20
61.835780
 30
0.0
  0
LWPOLYLINE
  5
228
100
AcDbEntity
  8
Ebene_1
 62
1
100
AcDbPolyline
 90
1
 70
1
 10
538.611490
 20
829.932630
 30
0.0
  0
SPLINE
  5
229
100
AcDbEntity
  8
Ebene_1
 62
1
100
AcDbSpline
 70
8
 71
3
 72
8
 73
4
 74
0
 40
0
 40
0
 40
0
 40
0
 40
1
 40
1
 40
1
 40
1
 10
210.009310
 20
402.945080
 30
0.0
 10
209.958310
 20
405.028880
 30
0.0
 10
210.030610
 20
406.779080
 30
0.0
 10
210.233280
 20
408.245080
 30
0.0
  0
SPLINE
  5
22a
100
AcDbEntity
  8
Ebene_1
 62
1
100
AcDbSpline
 70
8
 71
3
 72
8
 73
4
 74
0
 40
0
 40
0
 40
0
 40
0
 40
1
 40
1
 40
1
 40
1
 10
210.233280
 20
408.245080
 30
0.0
 10
210.435930
 20
409.711180
 30
0.0
 10
210.768840
 20
410.893080
 30
0.0
 10
211.238870
 20
411.840480
 30
0.0
  0
SPLINE
  5
22b
100
AcDbEntity
  8
Ebene_1
 62
1
100
AcDbSpline
 70
8
 71
3
 72
8
 73
4
 74
0
 40
0
 40
0
 40
0
 40
0
 40
1
 40
1
 40
1
 40
1
 10
211.238870
 20
411.840480
 30
0.0
 10
211.708890
 20
412.787880
 30
0.0
 10
212.316020
 20
413.500580
 30
0.0
 10
213.067110
 20
414.028280
 30
0.0
  0
SPLINE
  5
22c
100
AcDbEntity
  8
Ebene_1
 62
1
100
AcDbSpline
 70
8
 71
3
 72
8
 73
4
 74
0
 40
0
 40
0
 40
0
 40
0
 40
1
 40
1
 40
1
 40
1
 10
213.067110
 20
414.028280
 30
0.0
 10
213.818190
 20
414.555880
 30
0.0
 10
214.713220
 20
414.898480
 30
0.0
 10
215.759050
 20
415.105480
 30
0.0
  0
SPLINE
  5
22d
100
AcDbEntity
  8
Ebene_1
 62
1
100
AcDbSpline
 70
8
 71
3
 72
8
 73
4
 74
0
 40
0
 40
0
 40
0
 40
0
 40
1
 40
1
 40
1
 40
1
 10
215.759050
 20
415.105480
 30
0.0
 10
216.804880
 20
415.312480
 30
0.0
 10
218.001500
 20
415.383880
 30
0.0
 10
219.355750
 20
415.369180
 30
0.0
  0
SPLINE
  5
22e
100
AcDbEntity
  8
Ebene_1
 62
1
100
AcDbSpline
 70
8
 71
3
 72
8
 73
4
 74
0
 40
0
 40
0
 40
0
 40
0
 40
1
 40
1
 40
1
 40
1
 10
219.355750
 20
415.369180
 30
0.0
 10
223.037930
 20
415.329180
 30
0.0
 10
228.350710
 20
413.981980
 30
0.0
 10
231.161750
 20
412.375080
 30
0.0
  0
SPLINE
  5
22f
100
AcDbEntity
  8
Ebene_1
 62
1
100
AcDbSpline
 70
8
 71
3
 72
8
 73
4
 74
0
 40
0
 40
0
 40
0
 40
0
 40
1
 40
1
 40
1
 40
1
 10
231.161750
 20
412.375080
 30
0.0
 10
238.537540
 20
408.158680
 30
0.0
 10
244.284170
 20
408.637480
 30
0.0
 10
255.694100
 20
414.419380
 30
0.0
  0
SPLINE
  5
230
100
AcDbEntity
  8
Ebene_1
 62
1
100
AcDbSpline
 70
8
 71
3
 72
8
 73
4
 74
0
 40
0
 40
0
 40
0
 40
0
 40
1
 40
1
 40
1
 40
1
 10
255.694100
 20
414.419380
 30
0.0
 10
262.438290
 20
417.836980
 30
0.0
 10
267.422570
 20
419.515180
 30
0.0
 10
271.060090
 20
419.445980
 30
0.0
  0
SPLINE
  5
231
100
AcDbEntity
  8
Ebene_1
 62
1
100
AcDbSpline
 70
8
 71
3
 72
8
 73
4
 74
0
 40
0
 40
0
 40
0
 40
0
 40
1
 40
1
 40
1
 40
1
 10
271.060090
 20
419.445980
 30
0.0
 10
274.697610
 20
419.376980
 30
0.0
 10
276.988470
 20
417.560180
 30
0.0
 10
278.346470
 20
413.988380
 30
0.0
  0
SPLINE
  5
232
100
AcDbEntity
  8
Ebene_1
 62
1
100
AcDbSpline
 70
8
 71
3
 72
8
 73
4
 74
0
 40
0
 40
0
 40
0
 40
0
 40
1
 40
1
 40
1
 40
1
 10
278.346470
 20
413.988380
 30
0.0
 10
281.370230
 20
406.035280
 30
0.0
 10
279.328970
 20
400.465980
 30
0.0
 10
268.151230
 20
386.171980
 30
0.0
  0
SPLINE
  5
233
100
AcDbEntity
  8
Ebene_1
 62
1
100
AcDbSpline
 70
8
 71
3
 72
8
 73
4
 74
0
 40
0
 40
0
 40
0
 40
0
 40
1
 40
1
 40
1
 40
1
 10
268.151230
 20
386.171980
 30
0.0
 10
248.033150
 20
360.445280
 30
0.0
 10
244.355390
 20
347.095180
 30
0.0
 10
246.116390
 20
306.190880
 30
0.0
  0
SPLINE
  5
234
100
AcDbEntity
  8
Ebene_1
 62
1
100
AcDbSpline
 70
8
 71
3
 72
8
 73
4
 74
0
 40
0
 40
0
 40
0
 40
0
 40
1
 40
1
 40
1
 40
1
 10
246.116390
 20
306.190880
 30
0.0
 10
246.797050
 20
290.380880
 30
0.0
 10
248.752140
 20
266.405480
 30
0.0
 10
250.461350
 20
252.912480
 30
0.0
  0
SPLINE
  5
235
100
AcDbEntity
  8
Ebene_1
 62
1
100
AcDbSpline
 70
8
 71
3
 72
8
 73
4
 74
0
 40
0
 40
0
 40
0
 40
0
 40
1
 40
1
 40
1
 40
1
 10
250.461350
 20
252.912480
 30
0.0
 10
252.170550
 20
239.419480
 30
0.0
 10
254.974020
 20
213.030880
 30
0.0
 10
256.690940
 20
194.271080
 30
0.0
  0
SPLINE
  5
236
100
AcDbEntity
  8
Ebene_1
 62
1
100
AcDbSpline
 70
8
 71
3
 72
8
 73
4
 74
0
 40
0
 40
0
 40
0
 40
0
 40
1
 40
1
 40
1
 40
1
 10
256.690940
 20
194.271080
 30
0.0
 10
260.112230
 20
156.888680
 30
0.0
 10
263.943780
 20
141.625680
 30
0.0
 10
273.761740
 20
126.271080
 30
0.0
  0
SPLINE
  5
237
100
AcDbEntity
  8
Ebene_1
 62
1
100
AcDbSpline
 70
8
 71
3
 72
8
 73
4
 74
0
 40
0
 40
0
 40
0
 40
0
 40
1
 40
1
 40
1
 40
1
 10
273.761740
 20
126.271080
 30
0.0
 10
285.703750
 20
107.594580
 30
0.0
 10
280.298920
 20
98.194080
 30
0.0
 10
264.532840
 20
110.219380
 30
0.0
  0
LWPOLYLINE
  5
238
100
AcDbEntity
  8
Ebene_1
 62
1
100
AcDbPolyline
 90
1
 70
1
 10
253.609990
 20
61.835780
 30
0.0
  0
SPLINE
  5
239
100
AcDbEntity
  8
Ebene_1
 62
1
100
AcDbSpline
 70
8
 71
3
 72
8
 73
4
 74
0
 40
0
 40
0
 40
0
 40
0
 40
1
 40
1
 40
1
 40
1
 10
247.803110
 20
112.302980
 30
0.0
 10
233.268620
 20
107.030080
 30
0.0
 10
232.559210
 20
108.821480
 30
0.0
 10
233.818440
 20
147.626380
 30
0.0
  0
LWPOLYLINE
  5
23a
100
AcDbEntity
  8
Ebene_1
 62
1
100
AcDbPolyline
 90
3
 70
0
 10
264.532840
 20
110.219380
 30
0.0
 10
257.288840
 20
115.744580
 30
0.0
 10
247.803110
 20
112.302980
 30
0.0
  0
SPLINE
  5
23b
100
AcDbEntity
  8
Ebene_1
 62
1
100
AcDbSpline
 70
8
 71
3
 72
8
 73
4
 74
0
 40
0
 40
0
 40
0
 40
0
 40
1
 40
1
 40
1
 40
1
 10
232.218020
 20
152.737180
 30
0.0
 10
230.772300
 20
138.119680
 30
0.0
 10
228.931580
 20
123.662180
 30
0.0
 10
228.127310
 20
120.608880
 30
0.0
  0
SPLINE
  5
23c
100
AcDbEntity
  8
Ebene_1
 62
1
100
AcDbSpline
 70
8
 71
3
 72
8
 73
4
 74
0
 40
0
 40
0
 40
0
 40
0
 40
1
 40
1
 40
1
 40
1
 10
228.127310
 20
120.608880
 30
0.0
 10
227.046300
 20
116.504880
 30
0.0
 10
227.776930
 20
113.643580
 30
0.0
 10
230.929720
 20
109.635380
 30
0.0
  0
SPLINE
  5
23d
100
AcDbEntity
  8
Ebene_1
 62
1
100
AcDbSpline
 70
8
 71
3
 72
8
 73
4
 74
0
 40
0
 40
0
 40
0
 40
0
 40
1
 40
1
 40
1
 40
1
 10
230.929720
 20
109.635380
 30
0.0
 10
233.275400
 20
106.653380
 30
0.0
 10
234.696150
 20
103.406680
 30
0.0
 10
234.086640
 20
102.420380
 30
0.0
  0
SPLINE
  5
23e
100
AcDbEntity
  8
Ebene_1
 62
1
100
AcDbSpline
 70
8
 71
3
 72
8
 73
4
 74
0
 40
0
 40
0
 40
0
 40
0
 40
1
 40
1
 40
1
 40
1
 10
234.086640
 20
102.420380
 30
0.0
 10
231.940350
 20
98.947680
 30
0.0
 10
225.819400
 20
96.808880
 30
0.0
 10
223.005140
 20
98.548180
 30
0.0
  0
SPLINE
  5
23f
100
AcDbEntity
  8
Ebene_1
 62
1
100
AcDbSpline
 70
8
 71
3
 72
8
 73
4
 74
0
 40
0
 40
0
 40
0
 40
0
 40
1
 40
1
 40
1
 40
1
 10
223.005140
 20
98.548180
 30
0.0
 10
220.700510
 20
99.972580
 30
0.0
 10
220.279310
 20
109.564780
 30
0.0
 10
220.720530
 20
150.603980
 30
0.0
  0
SPLINE
  5
240
100
AcDbEntity
  8
Ebene_1
 62
1
100
AcDbSpline
 70
8
 71
3
 72
8
 73
4
 74
0
 40
0
 40
0
 40
0
 40
0
 40
1
 40
1
 40
1
 40
1
 10
220.720530
 20
150.603980
 30
0.0
 10
221.291220
 20
203.686280
 30
0.0
 10
221.475480
 20
201.545580
 30
0.0
 10
207.518750
 20
304.022480
 30
0.0
  0
SPLINE
  5
241
100
AcDbEntity
  8
Ebene_1
 62
1
100
AcDbSpline
 70
8
 71
3
 72
8
 73
4
 74
0
 40
0
 40
0
 40
0
 40
0
 40
1
 40
1
 40
1
 40
1
 10
207.518750
 20
304.022480
 30
0.0
 10
201.032340
 20
351.648780
 30
0.0
 10
208.383270
 20
381.396180
 30
0.0
 10
210.128960
 20
396.683080
 30
0.0
  0
SPLINE
  5
242
100
AcDbEntity
  8
Ebene_1
 62
1
100
AcDbSpline
 70
8
 71
3
 72
8
 73
4
 74
0
 40
0
 40
0
 40
0
 40
0
 40
1
 40
1
 40
1
 40
1
 10
210.128960
 20
396.683080
 30
0.0
 10
210.454540
 20
399.534080
 30
0.0
 10
210.060360
 20
400.861280
 30
0.0
 10
210.009310
 20
402.945080
 30
0.0
  0
LWPOLYLINE
  5
243
100
AcDbEntity
  8
Ebene_1
 62
1
100
AcDbPolyline
 90
3
 70
0
 10
233.818440
 20
147.626380
 30
0.0
 10
234.846800
 20
179.314380
 30
0.0
 10
232.218020
 20
152.737180
 30
0.0
  0
SPLINE
  5
244
100
AcDbEntity
  8
Ebene_1
 62
1
100
AcDbSpline
 70
8
 71
3
 72
8
 73
4
 74
0
 40
0
 40
0
 40
0
 40
0
 40
1
 40
1
 40
1
 40
1
 10
221.075030
 20
278.467480
 30
0.0
 10
225.673280
 20
241.923980
 30
0.0
 10
230.168420
 20
207.884880
 30
0.0
 10
231.064600
 20
202.825080
 30
0.0
  0
SPLINE
  5
245
100
AcDbEntity
  8
Ebene_1
 62
1
100
AcDbSpline
 70
8
 71
3
 72
8
 73
4
 74
0
 40
0
 40
0
 40
0
 40
0
 40
1
 40
1
 40
1
 40
1
 10
231.064600
 20
202.825080
 30
0.0
 10
234.568490
 20
183.041680
 30
0.0
 10
232.937150
 20
206.159780
 30
0.0
 10
227.241580
 20
257.001580
 30
0.0
  0
SPLINE
  5
246
100
AcDbEntity
  8
Ebene_1
 62
1
100
AcDbSpline
 70
8
 71
3
 72
8
 73
4
 74
0
 40
0
 40
0
 40
0
 40
0
 40
1
 40
1
 40
1
 40
1
 10
227.241580
 20
257.001580
 30
0.0
 10
223.966550
 20
286.236380
 30
0.0
 10
220.684610
 20
317.515280
 30
0.0
 10
219.947970
 20
326.510580
 30
0.0
  0
SPLINE
  5
247
100
AcDbEntity
  8
Ebene_1
 62
1
100
AcDbSpline
 70
8
 71
3
 72
8
 73
4
 74
0
 40
0
 40
0
 40
0
 40
0
 40
1
 40
1
 40
1
 40
1
 10
219.947970
 20
326.510580
 30
0.0
 10
219.211330
 20
335.505780
 30
0.0
 10
214.267350
 20
356.572180
 30
0.0
 10
213.405240
 20
373.704480
 30
0.0
  0
SPLINE
  5
248
100
AcDbEntity
  8
Ebene_1
 62
1
100
AcDbSpline
 70
8
 71
3
 72
8
 73
4
 74
0
 40
0
 40
0
 40
0
 40
0
 40
1
 40
1
 40
1
 40
1
 10
213.405240
 20
373.704480
 30
0.0
 10
213.233240
 20
377.122580
 30
0.0
 10
208.383360
 20
379.331480
 30
0.0
 10
221.075030
 20
278.467480
 30
0.0
  0
LWPOLYLINE
  5
249
100
AcDbEntity
  8
Ebene_1
 62
1
100
AcDbPolyline
 90
1
 70
1
 10
210.009310
 20
402.945080
 30
0.0
  0
SPLINE
  5
24a
100
AcDbEntity
  8
Ebene_1
 62
1
100
AcDbSpline
 70
8
 71
3
 72
8
 73
4
 74
0
 40
0
 40
0
 40
0
 40
0
 40
1
 40
1
 40
1
 40
1
 10
197.612250
 20
835.738020
 30
0.0
 10
196.606620
 20
846.059180
 30
0.0
 10
210.303520
 20
857.751610
 30
0.0
 10
222.281690
 20
857.751610
 30
0.0
  0
SPLINE
  5
24b
100
AcDbEntity
  8
Ebene_1
 62
1
100
AcDbSpline
 70
8
 71
3
 72
8
 73
4
 74
0
 40
0
 40
0
 40
0
 40
0
 40
1
 40
1
 40
1
 40
1
 10
222.281690
 20
857.751610
 30
0.0
 10
233.924170
 20
857.751610
 30
0.0
 10
244.688290
 20
852.566950
 30
0.0
 10
249.530150
 20
844.626820
 30
0.0
  0
SPLINE
  5
24c
100
AcDbEntity
  8
Ebene_1
 62
1
100
AcDbSpline
 70
8
 71
3
 72
8
 73
4
 74
0
 40
0
 40
0
 40
0
 40
0
 40
1
 40
1
 40
1
 40
1
 10
249.530150
 20
844.626820
 30
0.0
 10
253.887820
 20
837.480760
 30
0.0
 10
258.288500
 20
821.069800
 30
0.0
 10
254.491640
 20
817.272940
 30
0.0
  0
SPLINE
  5
24d
100
AcDbEntity
  8
Ebene_1
 62
1
100
AcDbSpline
 70
8
 71
3
 72
8
 73
4
 74
0
 40
0
 40
0
 40
0
 40
0
 40
1
 40
1
 40
1
 40
1
 10
254.491640
 20
817.272940
 30
0.0
 10
249.999610
 20
812.780890
 30
0.0
 10
242.728670
 20
799.382260
 30
0.0
 10
234.231080
 20
808.347980
 30
0.0
  0
SPLINE
  5
24e
100
AcDbEntity
  8
Ebene_1
 62
1
100
AcDbSpline
 70
8
 71
3
 72
8
 73
4
 74
0
 40
0
 40
0
 40
0
 40
0
 40
1
 40
1
 40
1
 40
1
 10
234.231080
 20
808.347980
 30
0.0
 10
230.060510
 20
801.400300
 30
0.0
 10
224.524140
 20
793.862860
 30
0.0
 10
225.806980
 20
783.070890
 30
0.0
  0
SPLINE
  5
24f
100
AcDbEntity
  8
Ebene_1
 62
1
100
AcDbSpline
 70
8
 71
3
 72
8
 73
4
 74
0
 40
0
 40
0
 40
0
 40
0
 40
1
 40
1
 40
1
 40
1
 10
225.806980
 20
783.070890
 30
0.0
 10
229.718090
 20
756.863160
 30
0.0
 10
226.053980
 20
729.864450
 30
0.0
 10
226.989410
 20
714.644060
 30
0.0
  0
SPLINE
  5
250
100
AcDbEntity
  8
Ebene_1
 62
1
100
AcDbSpline
 70
8
 71
3
 72
8
 73
4
 74
0
 40
0
 40
0
 40
0
 40
0
 40
1
 40
1
 40
1
 40
1
 10
226.989410
 20
714.644060
 30
0.0
 10
232.036710
 20
639.975180
 30
0.0
 10
233.435360
 20
623.402580
 30
0.0
 10
237.132460
 20
594.436980
 30
0.0
  0
SPLINE
  5
251
100
AcDbEntity
  8
Ebene_1
 62
1
100
AcDbSpline
 70
8
 71
3
 72
8
 73
4
 74
0
 40
0
 40
0
 40
0
 40
0
 40
1
 40
1
 40
1
 40
1
 10
237.132460
 20
594.436980
 30
0.0
 10
242.530390
 20
552.145880
 30
0.0
 10
245.929270
 20
536.544480
 30
0.0
 10
256.899730
 20
503.706580
 30
0.0
  0
LWPOLYLINE
  5
252
100
AcDbEntity
  8
Ebene_1
 62
1
100
AcDbPolyline
 90
1
 70
1
 10
221.075030
 20
278.467480
 30
0.0
  0
SPLINE
  5
253
100
AcDbEntity
  8
Ebene_1
 62
1
100
AcDbSpline
 70
8
 71
3
 72
8
 73
4
 74
0
 40
0
 40
0
 40
0
 40
0
 40
1
 40
1
 40
1
 40
1
 10
266.242310
 20
475.741880
 30
0.0
 10
273.594270
 20
462.754680
 30
0.0
 10
265.238200
 20
443.144480
 30
0.0
 10
255.957670
 20
449.866480
 30
0.0
  0
SPLINE
  5
254
100
AcDbEntity
  8
Ebene_1
 62
1
100
AcDbSpline
 70
8
 71
3
 72
8
 73
4
 74
0
 40
0
 40
0
 40
0
 40
0
 40
1
 40
1
 40
1
 40
1
 10
255.957670
 20
449.866480
 30
0.0
 10
248.629020
 20
452.861580
 30
0.0
 10
246.336370
 20
453.203980
 30
0.0
 10
250.318740
 20
450.709280
 30
0.0
  0
SPLINE
  5
255
100
AcDbEntity
  8
Ebene_1
 62
1
100
AcDbSpline
 70
8
 71
3
 72
8
 73
4
 74
0
 40
0
 40
0
 40
0
 40
0
 40
1
 40
1
 40
1
 40
1
 10
250.318740
 20
450.709280
 30
0.0
 10
261.901430
 20
443.453180
 30
0.0
 10
267.860800
 20
432.193380
 30
0.0
 10
256.584550
 20
427.557680
 30
0.0
  0
SPLINE
  5
256
100
AcDbEntity
  8
Ebene_1
 62
1
100
AcDbSpline
 70
8
 71
3
 72
8
 73
4
 74
0
 40
0
 40
0
 40
0
 40
0
 40
1
 40
1
 40
1
 40
1
 10
256.584550
 20
427.557680
 30
0.0
 10
251.798210
 20
425.589880
 30
0.0
 10
236.642430
 20
422.622580
 30
0.0
 10
236.092040
 20
422.730480
 30
0.0
  0
SPLINE
  5
257
100
AcDbEntity
  8
Ebene_1
 62
1
100
AcDbSpline
 70
8
 71
3
 72
8
 73
4
 74
0
 40
0
 40
0
 40
0
 40
0
 40
1
 40
1
 40
1
 40
1
 10
236.092040
 20
422.730480
 30
0.0
 10
216.142980
 20
430.458880
 30
0.0
 10
232.007710
 20
438.217880
 30
0.0
 10
236.007940
 20
451.837880
 30
0.0
  0
SPLINE
  5
258
100
AcDbEntity
  8
Ebene_1
 62
1
100
AcDbSpline
 70
8
 71
3
 72
8
 73
4
 74
0
 40
0
 40
0
 40
0
 40
0
 40
1
 40
1
 40
1
 40
1
 10
236.007940
 20
451.837880
 30
0.0
 10
237.940350
 20
458.417280
 30
0.0
 10
223.963570
 20
439.315180
 30
0.0
 10
218.227630
 20
438.651080
 30
0.0
  0
SPLINE
  5
259
100
AcDbEntity
  8
Ebene_1
 62
1
100
AcDbSpline
 70
8
 71
3
 72
8
 73
4
 74
0
 40
0
 40
0
 40
0
 40
0
 40
1
 40
1
 40
1
 40
1
 10
218.227630
 20
438.651080
 30
0.0
 10
216.726350
 20
438.651080
 30
0.0
 10
216.476440
 20
443.059780
 30
0.0
 10
217.445770
 20
452.450780
 30
0.0
  0
SPLINE
  5
25a
100
AcDbEntity
  8
Ebene_1
 62
1
100
AcDbSpline
 70
8
 71
3
 72
8
 73
4
 74
0
 40
0
 40
0
 40
0
 40
0
 40
1
 40
1
 40
1
 40
1
 10
217.445770
 20
452.450780
 30
0.0
 10
223.243930
 20
508.624480
 30
0.0
 10
222.859250
 20
520.259280
 30
0.0
 10
213.512670
 20
571.335980
 30
0.0
  0
SPLINE
  5
25b
100
AcDbEntity
  8
Ebene_1
 62
1
100
AcDbSpline
 70
8
 71
3
 72
8
 73
4
 74
0
 40
0
 40
0
 40
0
 40
0
 40
1
 40
1
 40
1
 40
1
 10
213.512670
 20
571.335980
 30
0.0
 10
208.564130
 20
598.378480
 30
0.0
 10
197.929890
 20
648.601180
 30
0.0
 10
197.005670
 20
669.275780
 30
0.0
  0
SPLINE
  5
25c
100
AcDbEntity
  8
Ebene_1
 62
1
100
AcDbSpline
 70
8
 71
3
 72
8
 73
4
 74
0
 40
0
 40
0
 40
0
 40
0
 40
1
 40
1
 40
1
 40
1
 10
197.005670
 20
669.275780
 30
0.0
 10
196.145870
 20
697.463980
 30
0.0
 10
182.453490
 20
759.191850
 30
0.0
 10
185.680766
 20
776.515040
 30
0.0
  0
SPLINE
  5
25d
100
AcDbEntity
  8
Ebene_1
 62
1
100
AcDbSpline
 70
8
 71
3
 72
8
 73
4
 74
0
 40
0
 40
0
 40
0
 40
0
 40
1
 40
1
 40
1
 40
1
 10
185.680766
 20
776.515040
 30
0.0
 10
189.366231
 20
802.515110
 30
0.0
 10
196.623850
 20
826.039740
 30
0.0
 10
197.612250
 20
835.738020
 30
0.0
  0
LWPOLYLINE
  5
25e
100
AcDbEntity
  8
Ebene_1
 62
1
100
AcDbPolyline
 90
2
 70
0
 10
256.899730
 20
503.706580
 30
0.0
 10
266.242310
 20
475.741880
 30
0.0
  0
SPLINE
  5
25f
100
AcDbEntity
  8
Ebene_1
 62
1
100
AcDbSpline
 70
8
 71
3
 72
8
 73
4
 74
0
 40
0
 40
0
 40
0
 40
0
 40
1
 40
1
 40
1
 40
1
 10
393.034390
 20
62.905380
 30
0.0
 10
389.869590
 20
56.991880
 30
0.0
 10
391.176430
 20
48.297980
 30
0.0
 10
395.549990
 20
46.171480
 30
0.0
  0
SPLINE
  5
260
100
AcDbEntity
  8
Ebene_1
 62
1
100
AcDbSpline
 70
8
 71
3
 72
8
 73
4
 74
0
 40
0
 40
0
 40
0
 40
0
 40
1
 40
1
 40
1
 40
1
 10
395.549990
 20
46.171480
 30
0.0
 10
397.517720
 20
45.214780
 30
0.0
 10
400.737910
 20
43.493380
 30
0.0
 10
402.705630
 20
42.346380
 30
0.0
  0
SPLINE
  5
261
100
AcDbEntity
  8
Ebene_1
 62
1
100
AcDbSpline
 70
8
 71
3
 72
8
 73
4
 74
0
 40
0
 40
0
 40
0
 40
0
 40
1
 40
1
 40
1
 40
1
 10
402.705630
 20
42.346380
 30
0.0
 10
404.673360
 20
41.199280
 30
0.0
 10
409.042900
 20
38.926180
 30
0.0
 10
412.416150
 20
37.294980
 30
0.0
  0
SPLINE
  5
262
100
AcDbEntity
  8
Ebene_1
 62
1
100
AcDbSpline
 70
8
 71
3
 72
8
 73
4
 74
0
 40
0
 40
0
 40
0
 40
0
 40
1
 40
1
 40
1
 40
1
 10
412.416150
 20
37.294980
 30
0.0
 10
415.789390
 20
35.663780
 30
0.0
 10
424.006540
 20
29.322080
 30
0.0
 10
430.676020
 20
23.202380
 30
0.0
  0
SPLINE
  5
263
100
AcDbEntity
  8
Ebene_1
 62
1
100
AcDbSpline
 70
8
 71
3
 72
8
 73
4
 74
0
 40
0
 40
0
 40
0
 40
0
 40
1
 40
1
 40
1
 40
1
 10
430.676020
 20
23.202380
 30
0.0
 10
437.345490
 20
17.082680
 30
0.0
 10
446.755390
 20
10.101580
 30
0.0
 10
451.586880
 20
7.688580
 30
0.0
  0
SPLINE
  5
264
100
AcDbEntity
  8
Ebene_1
 62
1
100
AcDbSpline
 70
8
 71
3
 72
8
 73
4
 74
0
 40
0
 40
0
 40
0
 40
0
 40
1
 40
1
 40
1
 40
1
 10
451.586880
 20
7.688580
 30
0.0
 10
462.261000
 20
2.357680
 30
0.0
 10
472.682220
 20
0.615180
 30
0.0
 10
476.814800
 20
3.470180
 30
0.0
  0
SPLINE
  5
265
100
AcDbEntity
  8
Ebene_1
 62
1
100
AcDbSpline
 70
8
 71
3
 72
8
 73
4
 74
0
 40
0
 40
0
 40
0
 40
0
 40
1
 40
1
 40
1
 40
1
 10
476.814800
 20
3.470180
 30
0.0
 10
479.540660
 20
5.353280
 30
0.0
 10
479.540660
 20
5.812380
 30
0.0
 10
476.814800
 20
7.601780
 30
0.0
  0
SPLINE
  5
266
100
AcDbEntity
  8
Ebene_1
 62
1
100
AcDbSpline
 70
8
 71
3
 72
8
 73
4
 74
0
 40
0
 40
0
 40
0
 40
0
 40
1
 40
1
 40
1
 40
1
 10
476.814800
 20
7.601780
 30
0.0
 10
475.128180
 20
8.708980
 30
0.0
 10
472.116870
 20
9.630080
 30
0.0
 10
470.123220
 20
9.646080
 30
0.0
  0
SPLINE
  5
267
100
AcDbEntity
  8
Ebene_1
 62
1
100
AcDbSpline
 70
8
 71
3
 72
8
 73
4
 74
0
 40
0
 40
0
 40
0
 40
0
 40
1
 40
1
 40
1
 40
1
 10
470.123220
 20
9.646080
 30
0.0
 10
455.020920
 20
18.142980
 30
0.0
 10
410.707000
 20
66.637280
 30
0.0
 10
442.038110
 20
37.718780
 30
0.0
  0
SPLINE
  5
268
100
AcDbEntity
  8
Ebene_1
 62
1
100
AcDbSpline
 70
8
 71
3
 72
8
 73
4
 74
0
 40
0
 40
0
 40
0
 40
0
 40
1
 40
1
 40
1
 40
1
 10
442.038110
 20
37.718780
 30
0.0
 10
455.923420
 20
24.863080
 30
0.0
 10
471.449380
 20
15.654380
 30
0.0
 10
483.969920
 20
12.848480
 30
0.0
  0
SPLINE
  5
269
100
AcDbEntity
  8
Ebene_1
 62
1
100
AcDbSpline
 70
8
 71
3
 72
8
 73
4
 74
0
 40
0
 40
0
 40
0
 40
0
 40
1
 40
1
 40
1
 40
1
 10
483.969920
 20
12.848480
 30
0.0
 10
499.331490
 20
9.405880
 30
0.0
 10
500.605260
 20
9.386480
 30
0.0
 10
503.234380
 20
12.554380
 30
0.0
  0
SPLINE
  5
26a
100
AcDbEntity
  8
Ebene_1
 62
1
100
AcDbSpline
 70
8
 71
3
 72
8
 73
4
 74
0
 40
0
 40
0
 40
0
 40
0
 40
1
 40
1
 40
1
 40
1
 10
503.234380
 20
12.554380
 30
0.0
 10
505.582970
 20
15.384280
 30
0.0
 10
503.715690
 20
16.788680
 30
0.0
 10
487.998620
 20
24.015680
 30
0.0
  0
SPLINE
  5
26b
100
AcDbEntity
  8
Ebene_1
 62
1
100
AcDbSpline
 70
8
 71
3
 72
8
 73
4
 74
0
 40
0
 40
0
 40
0
 40
0
 40
1
 40
1
 40
1
 40
1
 10
487.998620
 20
24.015680
 30
0.0
 10
470.921530
 20
31.867980
 30
0.0
 10
431.833520
 20
58.366480
 30
0.0
 10
481.951720
 20
32.846680
 30
0.0
  0
SPLINE
  5
26c
100
AcDbEntity
  8
Ebene_1
 62
1
100
AcDbSpline
 70
8
 71
3
 72
8
 73
4
 74
0
 40
0
 40
0
 40
0
 40
0
 40
1
 40
1
 40
1
 40
1
 10
481.951720
 20
32.846680
 30
0.0
 10
487.619120
 20
29.734180
 30
0.0
 10
512.900290
 20
21.368080
 30
0.0
 10
511.569270
 20
28.930680
 30
0.0
  0
SPLINE
  5
26d
100
AcDbEntity
  8
Ebene_1
 62
1
100
AcDbSpline
 70
8
 71
3
 72
8
 73
4
 74
0
 40
0
 40
0
 40
0
 40
0
 40
1
 40
1
 40
1
 40
1
 10
511.569270
 20
28.930680
 30
0.0
 10
510.256130
 20
34.161980
 30
0.0
 10
481.941580
 20
42.057880
 30
0.0
 10
472.186070
 20
47.071680
 30
0.0
  0
SPLINE
  5
26e
100
AcDbEntity
  8
Ebene_1
 62
1
100
AcDbSpline
 70
8
 71
3
 72
8
 73
4
 74
0
 40
0
 40
0
 40
0
 40
0
 40
1
 40
1
 40
1
 40
1
 10
472.186070
 20
47.071680
 30
0.0
 10
449.346850
 20
58.809680
 30
0.0
 10
441.832200
 20
60.606380
 30
0.0
 10
439.272670
 20
65.388880
 30
0.0
  0
SPLINE
  5
26f
100
AcDbEntity
  8
Ebene_1
 62
1
100
AcDbSpline
 70
8
 71
3
 72
8
 73
4
 74
0
 40
0
 40
0
 40
0
 40
0
 40
1
 40
1
 40
1
 40
1
 10
439.272670
 20
65.388880
 30
0.0
 10
438.064370
 20
67.646580
 30
0.0
 10
432.496590
 20
73.053580
 30
0.0
 10
430.978840
 20
73.053580
 30
0.0
  0
SPLINE
  5
270
100
AcDbEntity
  8
Ebene_1
 62
1
100
AcDbSpline
 70
8
 71
3
 72
8
 73
4
 74
0
 40
0
 40
0
 40
0
 40
0
 40
1
 40
1
 40
1
 40
1
 10
430.978840
 20
73.053580
 30
0.0
 10
429.461100
 20
73.053580
 30
0.0
 10
426.712540
 20
75.353380
 30
0.0
 10
424.870690
 20
78.164380
 30
0.0
  0
SPLINE
  5
271
100
AcDbEntity
  8
Ebene_1
 62
1
100
AcDbSpline
 70
8
 71
3
 72
8
 73
4
 74
0
 40
0
 40
0
 40
0
 40
0
 40
1
 40
1
 40
1
 40
1
 10
424.870690
 20
78.164380
 30
0.0
 10
422.593170
 20
81.640380
 30
0.0
 10
419.655050
 20
83.275180
 30
0.0
 10
415.686230
 20
83.275180
 30
0.0
  0
SPLINE
  5
272
100
AcDbEntity
  8
Ebene_1
 62
1
100
AcDbSpline
 70
8
 71
3
 72
8
 73
4
 74
0
 40
0
 40
0
 40
0
 40
0
 40
1
 40
1
 40
1
 40
1
 10
415.686230
 20
83.275180
 30
0.0
 10
408.415150
 20
83.275180
 30
0.0
 10
405.025200
 20
87.168780
 30
0.0
 10
405.610360
 20
94.848580
 30
0.0
  0
SPLINE
  5
273
100
AcDbEntity
  8
Ebene_1
 62
1
100
AcDbSpline
 70
8
 71
3
 72
8
 73
4
 74
0
 40
0
 40
0
 40
0
 40
0
 40
1
 40
1
 40
1
 40
1
 10
405.610360
 20
94.848580
 30
0.0
 10
406.274220
 20
103.560680
 30
0.0
 10
403.971810
 20
105.763680
 30
0.0
 10
394.201240
 20
105.763680
 30
0.0
  0
SPLINE
  5
274
100
AcDbEntity
  8
Ebene_1
 62
1
100
AcDbSpline
 70
8
 71
3
 72
8
 73
4
 74
0
 40
0
 40
0
 40
0
 40
0
 40
1
 40
1
 40
1
 40
1
 10
394.201240
 20
105.763680
 30
0.0
 10
382.397590
 20
105.763680
 30
0.0
 10
372.550880
 20
102.136780
 30
0.0
 10
372.550880
 20
97.788980
 30
0.0
  0
SPLINE
  5
275
100
AcDbEntity
  8
Ebene_1
 62
1
100
AcDbSpline
 70
8
 71
3
 72
8
 73
4
 74
0
 40
0
 40
0
 40
0
 40
0
 40
1
 40
1
 40
1
 40
1
 10
372.550880
 20
97.788980
 30
0.0
 10
372.550880
 20
95.871680
 30
0.0
 10
376.208920
 20
91.206180
 30
0.0
 10
373.503500
 20
86.268180
 30
0.0
  0
SPLINE
  5
276
100
AcDbEntity
  8
Ebene_1
 62
1
100
AcDbSpline
 70
8
 71
3
 72
8
 73
4
 74
0
 40
0
 40
0
 40
0
 40
0
 40
1
 40
1
 40
1
 40
1
 10
373.503500
 20
86.268180
 30
0.0
 10
370.351590
 20
89.939480
 30
0.0
 10
364.608440
 20
87.284480
 30
0.0
 10
357.409170
 20
87.329180
 30
0.0
  0
SPLINE
  5
277
100
AcDbEntity
  8
Ebene_1
 62
1
100
AcDbSpline
 70
8
 71
3
 72
8
 73
4
 74
0
 40
0
 40
0
 40
0
 40
0
 40
1
 40
1
 40
1
 40
1
 10
357.409170
 20
87.329180
 30
0.0
 10
353.089610
 20
87.356180
 30
0.0
 10
349.607370
 20
86.512880
 30
0.0
 10
348.859300
 20
84.563480
 30
0.0
  0
SPLINE
  5
278
100
AcDbEntity
  8
Ebene_1
 62
1
100
AcDbSpline
 70
8
 71
3
 72
8
 73
4
 74
0
 40
0
 40
0
 40
0
 40
0
 40
1
 40
1
 40
1
 40
1
 10
348.859300
 20
84.563480
 30
0.0
 10
346.894240
 20
79.442580
 30
0.0
 10
356.750400
 20
65.960680
 30
0.0
 10
366.128530
 20
60.941680
 30
0.0
  0
SPLINE
  5
279
100
AcDbEntity
  8
Ebene_1
 62
1
100
AcDbSpline
 70
8
 71
3
 72
8
 73
4
 74
0
 40
0
 40
0
 40
0
 40
0
 40
1
 40
1
 40
1
 40
1
 10
366.128530
 20
60.941680
 30
0.0
 10
368.388570
 20
59.732180
 30
0.0
 10
371.119390
 20
58.742780
 30
0.0
 10
372.197410
 20
58.742780
 30
0.0
  0
SPLINE
  5
27a
100
AcDbEntity
  8
Ebene_1
 62
1
100
AcDbSpline
 70
8
 71
3
 72
8
 73
4
 74
0
 40
0
 40
0
 40
0
 40
0
 40
1
 40
1
 40
1
 40
1
 10
372.197410
 20
58.742780
 30
0.0
 10
374.751390
 20
58.742780
 30
0.0
 10
377.005220
 20
64.674580
 30
0.0
 10
375.717030
 20
67.209980
 30
0.0
  0
SPLINE
  5
27b
100
AcDbEntity
  8
Ebene_1
 62
1
100
AcDbSpline
 70
8
 71
3
 72
8
 73
4
 74
0
 40
0
 40
0
 40
0
 40
0
 40
1
 40
1
 40
1
 40
1
 10
375.717030
 20
67.209980
 30
0.0
 10
380.009370
 20
70.504980
 30
0.0
 10
395.813630
 20
68.098480
 30
0.0
 10
393.034390
 20
62.905380
 30
0.0
  0
LWPOLYLINE
  5
27c
100
AcDbEntity
  8
Ebene_1
 62
1
100
AcDbPolyline
 90
1
 70
1
 10
197.612250
 20
835.738020
 30
0.0
  0
SPLINE
  5
27d
100
AcDbEntity
  8
Ebene_1
 62
1
100
AcDbSpline
 70
8
 71
3
 72
8
 73
4
 74
0
 40
0
 40
0
 40
0
 40
0
 40
1
 40
1
 40
1
 40
1
 10
441.437740
 20
366.353980
 30
0.0
 10
440.232120
 20
378.770680
 30
0.0
 10
436.637830
 20
387.895580
 30
0.0
 10
436.842920
 20
392.811780
 30
0.0
  0
SPLINE
  5
27e
100
AcDbEntity
  8
Ebene_1
 62
1
100
AcDbSpline
 70
8
 71
3
 72
8
 73
4
 74
0
 40
0
 40
0
 40
0
 40
0
 40
1
 40
1
 40
1
 40
1
 10
436.842920
 20
392.811780
 30
0.0
 10
437.719390
 20
413.821980
 30
0.0
 10
437.295480
 20
417.242380
 30
0.0
 10
428.468450
 20
417.146680
 30
0.0
  0
SPLINE
  5
27f
100
AcDbEntity
  8
Ebene_1
 62
1
100
AcDbSpline
 70
8
 71
3
 72
8
 73
4
 74
0
 40
0
 40
0
 40
0
 40
0
 40
1
 40
1
 40
1
 40
1
 10
428.468450
 20
417.146680
 30
0.0
 10
424.786270
 20
417.106680
 30
0.0
 10
419.473490
 20
415.759480
 30
0.0
 10
416.662450
 20
414.152580
 30
0.0
  0
SPLINE
  5
280
100
AcDbEntity
  8
Ebene_1
 62
1
100
AcDbSpline
 70
8
 71
3
 72
8
 73
4
 74
0
 40
0
 40
0
 40
0
 40
0
 40
1
 40
1
 40
1
 40
1
 10
416.662450
 20
414.152580
 30
0.0
 10
409.286670
 20
409.936180
 30
0.0
 10
403.540020
 20
410.414980
 30
0.0
 10
392.130100
 20
416.196880
 30
0.0
  0
SPLINE
  5
281
100
AcDbEntity
  8
Ebene_1
 62
1
100
AcDbSpline
 70
8
 71
3
 72
8
 73
4
 74
0
 40
0
 40
0
 40
0
 40
0
 40
1
 40
1
 40
1
 40
1
 10
392.130100
 20
416.196880
 30
0.0
 10
385.385920
 20
419.614480
 30
0.0
 10
380.401630
 20
421.292680
 30
0.0
 10
376.764110
 20
421.223480
 30
0.0
  0
LWPOLYLINE
  5
282
100
AcDbEntity
  8
Ebene_1
 62
1
100
AcDbPolyline
 90
1
 70
1
 10
393.034390
 20
62.905380
 30
0.0
  0
SPLINE
  5
283
100
AcDbEntity
  8
Ebene_1
 62
1
100
AcDbSpline
 70
8
 71
3
 72
8
 73
4
 74
0
 40
0
 40
0
 40
0
 40
0
 40
1
 40
1
 40
1
 40
1
 10
376.764110
 20
421.223480
 30
0.0
 10
373.126590
 20
421.154480
 30
0.0
 10
370.835730
 20
419.337680
 30
0.0
 10
369.477730
 20
415.765880
 30
0.0
  0
SPLINE
  5
284
100
AcDbEntity
  8
Ebene_1
 62
1
100
AcDbSpline
 70
8
 71
3
 72
8
 73
4
 74
0
 40
0
 40
0
 40
0
 40
0
 40
1
 40
1
 40
1
 40
1
 10
369.477730
 20
415.765880
 30
0.0
 10
366.453970
 20
407.812780
 30
0.0
 10
368.495240
 20
402.243480
 30
0.0
 10
379.672970
 20
387.949480
 30
0.0
  0
SPLINE
  5
285
100
AcDbEntity
  8
Ebene_1
 62
1
100
AcDbSpline
 70
8
 71
3
 72
8
 73
4
 74
0
 40
0
 40
0
 40
0
 40
0
 40
1
 40
1
 40
1
 40
1
 10
379.672970
 20
387.949480
 30
0.0
 10
399.791030
 20
362.222780
 30
0.0
 10
403.468810
 20
348.872680
 30
0.0
 10
401.707810
 20
307.968380
 30
0.0
  0
SPLINE
  5
286
100
AcDbEntity
  8
Ebene_1
 62
1
100
AcDbSpline
 70
8
 71
3
 72
8
 73
4
 74
0
 40
0
 40
0
 40
0
 40
0
 40
1
 40
1
 40
1
 40
1
 10
401.707810
 20
307.968380
 30
0.0
 10
401.027150
 20
292.158380
 30
0.0
 10
399.072060
 20
268.182980
 30
0.0
 10
397.362850
 20
254.689980
 30
0.0
  0
SPLINE
  5
287
100
AcDbEntity
  8
Ebene_1
 62
1
100
AcDbSpline
 70
8
 71
3
 72
8
 73
4
 74
0
 40
0
 40
0
 40
0
 40
0
 40
1
 40
1
 40
1
 40
1
 10
397.362850
 20
254.689980
 30
0.0
 10
395.653650
 20
241.196980
 30
0.0
 10
392.850180
 20
214.808380
 30
0.0
 10
391.133260
 20
196.048580
 30
0.0
  0
SPLINE
  5
288
100
AcDbEntity
  8
Ebene_1
 62
1
100
AcDbSpline
 70
8
 71
3
 72
8
 73
4
 74
0
 40
0
 40
0
 40
0
 40
0
 40
1
 40
1
 40
1
 40
1
 10
391.133260
 20
196.048580
 30
0.0
 10
387.711970
 20
158.666180
 30
0.0
 10
383.880410
 20
143.403180
 30
0.0
 10
374.062460
 20
128.048580
 30
0.0
  0
SPLINE
  5
289
100
AcDbEntity
  8
Ebene_1
 62
1
100
AcDbSpline
 70
8
 71
3
 72
8
 73
4
 74
0
 40
0
 40
0
 40
0
 40
0
 40
1
 40
1
 40
1
 40
1
 10
374.062460
 20
128.048580
 30
0.0
 10
362.120460
 20
109.372080
 30
0.0
 10
367.525300
 20
99.971580
 30
0.0
 10
383.291360
 20
111.996880
 30
0.0
  0
LWPOLYLINE
  5
28a
100
AcDbEntity
  8
Ebene_1
 62
1
100
AcDbPolyline
 90
1
 70
1
 10
376.764110
 20
421.223480
 30
0.0
  0
SPLINE
  5
28b
100
AcDbEntity
  8
Ebene_1
 62
1
100
AcDbSpline
 70
8
 71
3
 72
8
 73
4
 74
0
 40
0
 40
0
 40
0
 40
0
 40
1
 40
1
 40
1
 40
1
 10
400.021090
 20
114.080480
 30
0.0
 10
414.555570
 20
108.807580
 30
0.0
 10
415.264990
 20
110.598980
 30
0.0
 10
414.005760
 20
149.403880
 30
0.0
  0
LWPOLYLINE
  5
28c
100
AcDbEntity
  8
Ebene_1
 62
1
100
AcDbPolyline
 90
3
 70
0
 10
383.291360
 20
111.996880
 30
0.0
 10
390.535360
 20
117.522080
 30
0.0
 10
400.021090
 20
114.080480
 30
0.0
  0
SPLINE
  5
28d
100
AcDbEntity
  8
Ebene_1
 62
1
100
AcDbSpline
 70
8
 71
3
 72
8
 73
4
 74
0
 40
0
 40
0
 40
0
 40
0
 40
1
 40
1
 40
1
 40
1
 10
415.606180
 20
154.514680
 30
0.0
 10
417.051900
 20
139.897180
 30
0.0
 10
418.892620
 20
125.439680
 30
0.0
 10
419.696890
 20
122.386380
 30
0.0
  0
SPLINE
  5
28e
100
AcDbEntity
  8
Ebene_1
 62
1
100
AcDbSpline
 70
8
 71
3
 72
8
 73
4
 74
0
 40
0
 40
0
 40
0
 40
0
 40
1
 40
1
 40
1
 40
1
 10
419.696890
 20
122.386380
 30
0.0
 10
420.777900
 20
118.282380
 30
0.0
 10
420.047270
 20
115.421080
 30
0.0
 10
416.894480
 20
111.412880
 30
0.0
  0
SPLINE
  5
28f
100
AcDbEntity
  8
Ebene_1
 62
1
100
AcDbSpline
 70
8
 71
3
 72
8
 73
4
 74
0
 40
0
 40
0
 40
0
 40
0
 40
1
 40
1
 40
1
 40
1
 10
416.894480
 20
111.412880
 30
0.0
 10
414.548800
 20
108.430880
 30
0.0
 10
413.128050
 20
105.184180
 30
0.0
 10
413.737560
 20
104.197880
 30
0.0
  0
SPLINE
  5
290
100
AcDbEntity
  8
Ebene_1
 62
1
100
AcDbSpline
 70
8
 71
3
 72
8
 73
4
 74
0
 40
0
 40
0
 40
0
 40
0
 40
1
 40
1
 40
1
 40
1
 10
413.737560
 20
104.197880
 30
0.0
 10
415.883850
 20
100.725180
 30
0.0
 10
422.004800
 20
98.586380
 30
0.0
 10
424.819060
 20
100.325680
 30
0.0
  0
SPLINE
  5
291
100
AcDbEntity
  8
Ebene_1
 62
1
100
AcDbSpline
 70
8
 71
3
 72
8
 73
4
 74
0
 40
0
 40
0
 40
0
 40
0
 40
1
 40
1
 40
1
 40
1
 10
424.819060
 20
100.325680
 30
0.0
 10
427.123690
 20
101.750080
 30
0.0
 10
427.544890
 20
111.342280
 30
0.0
 10
427.103670
 20
152.381480
 30
0.0
  0
SPLINE
  5
292
100
AcDbEntity
  8
Ebene_1
 62
1
100
AcDbSpline
 70
8
 71
3
 72
8
 73
4
 74
0
 40
0
 40
0
 40
0
 40
0
 40
1
 40
1
 40
1
 40
1
 10
427.103670
 20
152.381480
 30
0.0
 10
426.532980
 20
205.463680
 30
0.0
 10
426.348730
 20
203.323180
 30
0.0
 10
440.305450
 20
305.799980
 30
0.0
  0
SPLINE
  5
293
100
AcDbEntity
  8
Ebene_1
 62
1
100
AcDbSpline
 70
8
 71
3
 72
8
 73
4
 74
0
 40
0
 40
0
 40
0
 40
0
 40
1
 40
1
 40
1
 40
1
 10
440.305450
 20
305.799980
 30
0.0
 10
443.446330
 20
328.861880
 30
0.0
 10
443.006650
 20
350.195880
 30
0.0
 10
441.437740
 20
366.353980
 30
0.0
  0
SPLINE
  5
294
100
AcDbEntity
  8
Ebene_1
 62
1
100
AcDbSpline
 70
8
 71
3
 72
8
 73
4
 74
0
 40
0
 40
0
 40
0
 40
0
 40
1
 40
1
 40
1
 40
1
 10
426.749170
 20
280.244980
 30
0.0
 10
422.150920
 20
243.701480
 30
0.0
 10
417.655780
 20
209.662380
 30
0.0
 10
416.759600
 20
204.602580
 30
0.0
  0
SPLINE
  5
295
100
AcDbEntity
  8
Ebene_1
 62
1
100
AcDbSpline
 70
8
 71
3
 72
8
 73
4
 74
0
 40
0
 40
0
 40
0
 40
0
 40
1
 40
1
 40
1
 40
1
 10
416.759600
 20
204.602580
 30
0.0
 10
413.255710
 20
184.819180
 30
0.0
 10
414.887060
 20
207.937380
 30
0.0
 10
420.582620
 20
258.779080
 30
0.0
  0
SPLINE
  5
296
100
AcDbEntity
  8
Ebene_1
 62
1
100
AcDbSpline
 70
8
 71
3
 72
8
 73
4
 74
0
 40
0
 40
0
 40
0
 40
0
 40
1
 40
1
 40
1
 40
1
 10
420.582620
 20
258.779080
 30
0.0
 10
423.857650
 20
288.013880
 30
0.0
 10
427.139590
 20
319.292780
 30
0.0
 10
427.876230
 20
328.288080
 30
0.0
  0
SPLINE
  5
297
100
AcDbEntity
  8
Ebene_1
 62
1
100
AcDbSpline
 70
8
 71
3
 72
8
 73
4
 74
0
 40
0
 40
0
 40
0
 40
0
 40
1
 40
1
 40
1
 40
1
 10
427.876230
 20
328.288080
 30
0.0
 10
428.556280
 20
336.592280
 30
0.0
 10
431.036950
 20
355.384680
 30
0.0
 10
433.296860
 20
371.802380
 30
0.0
  0
SPLINE
  5
298
100
AcDbEntity
  8
Ebene_1
 62
1
100
AcDbSpline
 70
8
 71
3
 72
8
 73
4
 74
0
 40
0
 40
0
 40
0
 40
0
 40
1
 40
1
 40
1
 40
1
 10
433.296860
 20
371.802380
 30
0.0
 10
433.553670
 20
355.523680
 30
0.0
 10
432.717080
 20
327.673580
 30
0.0
 10
426.749170
 20
280.244980
 30
0.0
  0
LWPOLYLINE
  5
299
100
AcDbEntity
  8
Ebene_1
 62
1
100
AcDbPolyline
 90
3
 70
0
 10
414.005760
 20
149.403880
 30
0.0
 10
412.977400
 20
181.091880
 30
0.0
 10
415.606180
 20
154.514680
 30
0.0
  0
SPLINE
  5
29a
100
AcDbEntity
  8
Ebene_1
 62
1
100
AcDbSpline
 70
8
 71
3
 72
8
 73
4
 74
0
 40
0
 40
0
 40
0
 40
0
 40
1
 40
1
 40
1
 40
1
 10
450.811880
 20
827.908900
 30
0.0
 10
451.817510
 20
838.230000
 30
0.0
 10
438.120610
 20
849.922500
 30
0.0
 10
426.142440
 20
849.922500
 30
0.0
  0
SPLINE
  5
29b
100
AcDbEntity
  8
Ebene_1
 62
1
100
AcDbSpline
 70
8
 71
3
 72
8
 73
4
 74
0
 40
0
 40
0
 40
0
 40
0
 40
1
 40
1
 40
1
 40
1
 10
426.142440
 20
849.922500
 30
0.0
 10
414.499960
 20
849.922500
 30
0.0
 10
403.735840
 20
844.737800
 30
0.0
 10
398.893980
 20
836.797700
 30
0.0
  0
SPLINE
  5
29c
100
AcDbEntity
  8
Ebene_1
 62
1
100
AcDbSpline
 70
8
 71
3
 72
8
 73
4
 74
0
 40
0
 40
0
 40
0
 40
0
 40
1
 40
1
 40
1
 40
1
 10
398.893980
 20
836.797700
 30
0.0
 10
394.536310
 20
829.651600
 30
0.0
 10
390.135630
 20
813.240700
 30
0.0
 10
393.932490
 20
809.443800
 30
0.0
  0
SPLINE
  5
29d
100
AcDbEntity
  8
Ebene_1
 62
1
100
AcDbSpline
 70
8
 71
3
 72
8
 73
4
 74
0
 40
0
 40
0
 40
0
 40
0
 40
1
 40
1
 40
1
 40
1
 10
393.932490
 20
809.443800
 30
0.0
 10
398.424520
 20
804.951700
 30
0.0
 10
405.695460
 20
791.553100
 30
0.0
 10
414.193050
 20
800.518800
 30
0.0
  0
SPLINE
  5
29e
100
AcDbEntity
  8
Ebene_1
 62
1
100
AcDbSpline
 70
8
 71
3
 72
8
 73
4
 74
0
 40
0
 40
0
 40
0
 40
0
 40
1
 40
1
 40
1
 40
1
 10
414.193050
 20
800.518800
 30
0.0
 10
418.363620
 20
793.571100
 30
0.0
 10
423.899990
 20
786.033700
 30
0.0
 10
422.617150
 20
775.241680
 30
0.0
  0
SPLINE
  5
29f
100
AcDbEntity
  8
Ebene_1
 62
1
100
AcDbSpline
 70
8
 71
3
 72
8
 73
4
 74
0
 40
0
 40
0
 40
0
 40
0
 40
1
 40
1
 40
1
 40
1
 10
422.617150
 20
775.241680
 30
0.0
 10
418.706040
 20
749.033980
 30
0.0
 10
422.370150
 20
722.035280
 30
0.0
 10
421.434720
 20
706.814880
 30
0.0
  0
SPLINE
  5
2a0
100
AcDbEntity
  8
Ebene_1
 62
1
100
AcDbSpline
 70
8
 71
3
 72
8
 73
4
 74
0
 40
0
 40
0
 40
0
 40
0
 40
1
 40
1
 40
1
 40
1
 10
421.434720
 20
706.814880
 30
0.0
 10
416.387420
 20
632.145980
 30
0.0
 10
414.988770
 20
615.573380
 30
0.0
 10
411.291670
 20
586.607780
 30
0.0
  0
SPLINE
  5
2a1
100
AcDbEntity
  8
Ebene_1
 62
1
100
AcDbSpline
 70
8
 71
3
 72
8
 73
4
 74
0
 40
0
 40
0
 40
0
 40
0
 40
1
 40
1
 40
1
 40
1
 10
411.291670
 20
586.607780
 30
0.0
 10
405.893740
 20
544.316680
 30
0.0
 10
402.494860
 20
528.715280
 30
0.0
 10
391.524400
 20
495.877380
 30
0.0
  0
LWPOLYLINE
  5
2a2
100
AcDbEntity
  8
Ebene_1
 62
1
100
AcDbPolyline
 90
1
 70
1
 10
426.749170
 20
280.244980
 30
0.0
  0
SPLINE
  5
2a3
100
AcDbEntity
  8
Ebene_1
 62
1
100
AcDbSpline
 70
8
 71
3
 72
8
 73
4
 74
0
 40
0
 40
0
 40
0
 40
0
 40
1
 40
1
 40
1
 40
1
 10
382.181820
 20
467.912680
 30
0.0
 10
374.829860
 20
454.925480
 30
0.0
 10
383.185930
 20
435.315280
 30
0.0
 10
392.466460
 20
442.037280
 30
0.0
  0
SPLINE
  5
2a4
100
AcDbEntity
  8
Ebene_1
 62
1
100
AcDbSpline
 70
8
 71
3
 72
8
 73
4
 74
0
 40
0
 40
0
 40
0
 40
0
 40
1
 40
1
 40
1
 40
1
 10
392.466460
 20
442.037280
 30
0.0
 10
399.795110
 20
445.032380
 30
0.0
 10
402.087760
 20
445.374780
 30
0.0
 10
398.105390
 20
442.880080
 30
0.0
  0
SPLINE
  5
2a5
100
AcDbEntity
  8
Ebene_1
 62
1
100
AcDbSpline
 70
8
 71
3
 72
8
 73
4
 74
0
 40
0
 40
0
 40
0
 40
0
 40
1
 40
1
 40
1
 40
1
 10
398.105390
 20
442.880080
 30
0.0
 10
386.522700
 20
435.623980
 30
0.0
 10
380.563330
 20
424.364180
 30
0.0
 10
391.839580
 20
419.728480
 30
0.0
  0
SPLINE
  5
2a6
100
AcDbEntity
  8
Ebene_1
 62
1
100
AcDbSpline
 70
8
 71
3
 72
8
 73
4
 74
0
 40
0
 40
0
 40
0
 40
0
 40
1
 40
1
 40
1
 40
1
 10
391.839580
 20
419.728480
 30
0.0
 10
396.625920
 20
417.760680
 30
0.0
 10
411.781700
 20
414.793380
 30
0.0
 10
412.332090
 20
414.901280
 30
0.0
  0
SPLINE
  5
2a7
100
AcDbEntity
  8
Ebene_1
 62
1
100
AcDbSpline
 70
8
 71
3
 72
8
 73
4
 74
0
 40
0
 40
0
 40
0
 40
0
 40
1
 40
1
 40
1
 40
1
 10
412.332090
 20
414.901280
 30
0.0
 10
432.281150
 20
422.629680
 30
0.0
 10
416.416420
 20
430.388680
 30
0.0
 10
412.416190
 20
444.008680
 30
0.0
  0
SPLINE
  5
2a8
100
AcDbEntity
  8
Ebene_1
 62
1
100
AcDbSpline
 70
8
 71
3
 72
8
 73
4
 74
0
 40
0
 40
0
 40
0
 40
0
 40
1
 40
1
 40
1
 40
1
 10
412.416190
 20
444.008680
 30
0.0
 10
410.483780
 20
450.588080
 30
0.0
 10
424.460560
 20
431.485980
 30
0.0
 10
430.196500
 20
430.821880
 30
0.0
  0
SPLINE
  5
2a9
100
AcDbEntity
  8
Ebene_1
 62
1
100
AcDbSpline
 70
8
 71
3
 72
8
 73
4
 74
0
 40
0
 40
0
 40
0
 40
0
 40
1
 40
1
 40
1
 40
1
 10
430.196500
 20
430.821880
 30
0.0
 10
431.697780
 20
430.821880
 30
0.0
 10
431.947690
 20
435.230580
 30
0.0
 10
430.978360
 20
444.621580
 30
0.0
  0
SPLINE
  5
2aa
100
AcDbEntity
  8
Ebene_1
 62
1
100
AcDbSpline
 70
8
 71
3
 72
8
 73
4
 74
0
 40
0
 40
0
 40
0
 40
0
 40
1
 40
1
 40
1
 40
1
 10
430.978360
 20
444.621580
 30
0.0
 10
425.180200
 20
500.795280
 30
0.0
 10
425.564880
 20
512.430080
 30
0.0
 10
434.911460
 20
563.506780
 30
0.0
  0
SPLINE
  5
2ab
100
AcDbEntity
  8
Ebene_1
 62
1
100
AcDbSpline
 70
8
 71
3
 72
8
 73
4
 74
0
 40
0
 40
0
 40
0
 40
0
 40
1
 40
1
 40
1
 40
1
 10
434.911460
 20
563.506780
 30
0.0
 10
439.860000
 20
590.549280
 30
0.0
 10
450.494240
 20
640.771980
 30
0.0
 10
451.418460
 20
661.446580
 30
0.0
  0
SPLINE
  5
2ac
100
AcDbEntity
  8
Ebene_1
 62
1
100
AcDbSpline
 70
8
 71
3
 72
8
 73
4
 74
0
 40
0
 40
0
 40
0
 40
0
 40
1
 40
1
 40
1
 40
1
 10
451.418460
 20
661.446580
 30
0.0
 10
452.278260
 20
689.634780
 30
0.0
 10
465.970640
 20
751.362680
 30
0.0
 10
462.743370
 20
768.685880
 30
0.0
  0
SPLINE
  5
2ad
100
AcDbEntity
  8
Ebene_1
 62
1
100
AcDbSpline
 70
8
 71
3
 72
8
 73
4
 74
0
 40
0
 40
0
 40
0
 40
0
 40
1
 40
1
 40
1
 40
1
 10
462.743370
 20
768.685880
 30
0.0
 10
459.057900
 20
794.686000
 30
0.0
 10
451.800280
 20
818.210600
 30
0.0
 10
450.811880
 20
827.908900
 30
0.0
  0
LWPOLYLINE
  5
2ae
100
AcDbEntity
  8
Ebene_1
 62
1
100
AcDbPolyline
 90
2
 70
0
 10
391.524400
 20
495.877380
 30
0.0
 10
382.181820
 20
467.912680
 30
0.0
  0
SPLINE
  5
2af
100
AcDbEntity
  8
Ebene_1
 62
1
100
AcDbSpline
 70
8
 71
3
 72
8
 73
4
 74
0
 40
0
 40
0
 40
0
 40
0
 40
1
 40
1
 40
1
 40
1
 10
361.375010
 20
910.425920
 30
0.0
 10
358.563120
 20
913.930570
 30
0.0
 10
353.708890
 20
916.936080
 30
0.0
 10
349.471340
 20
917.796530
 30
0.0
  0
SPLINE
  5
2b0
100
AcDbEntity
  8
Ebene_1
 62
1
100
AcDbSpline
 70
8
 71
3
 72
8
 73
4
 74
0
 40
0
 40
0
 40
0
 40
0
 40
1
 40
1
 40
1
 40
1
 10
349.471340
 20
917.796530
 30
0.0
 10
339.563360
 20
919.998080
 30
0.0
 10
339.897620
 20
913.534010
 30
0.0
 10
339.974310
 20
907.632940
 30
0.0
  0
SPLINE
  5
2b1
100
AcDbEntity
  8
Ebene_1
 62
1
100
AcDbSpline
 70
8
 71
3
 72
8
 73
4
 74
0
 40
0
 40
0
 40
0
 40
0
 40
1
 40
1
 40
1
 40
1
 10
339.974310
 20
907.632940
 30
0.0
 10
339.974310
 20
902.298570
 30
0.0
 10
351.961700
 20
902.042190
 30
0.0
 10
356.584630
 20
903.202470
 30
0.0
  0
SPLINE
  5
2b2
100
AcDbEntity
  8
Ebene_1
 62
1
100
AcDbSpline
 70
8
 71
3
 72
8
 73
4
 74
0
 40
0
 40
0
 40
0
 40
0
 40
1
 40
1
 40
1
 40
1
 10
356.584630
 20
903.202470
 30
0.0
 10
371.911840
 20
900.492990
 30
0.0
 10
338.108320
 20
877.603550
 30
0.0
 10
337.753230
 20
859.531360
 30
0.0
  0
SPLINE
  5
2b3
100
AcDbEntity
  8
Ebene_1
 62
1
100
AcDbSpline
 70
8
 71
3
 72
8
 73
4
 74
0
 40
0
 40
0
 40
0
 40
0
 40
1
 40
1
 40
1
 40
1
 10
337.753230
 20
859.531360
 30
0.0
 10
334.018940
 20
846.926080
 30
0.0
 10
323.058250
 20
835.462270
 30
0.0
 10
315.922520
 20
859.328780
 30
0.0
  0
SPLINE
  5
2b4
100
AcDbEntity
  8
Ebene_1
 62
1
100
AcDbSpline
 70
8
 71
3
 72
8
 73
4
 74
0
 40
0
 40
0
 40
0
 40
0
 40
1
 40
1
 40
1
 40
1
 10
315.922520
 20
859.328780
 30
0.0
 10
313.471850
 20
878.701740
 30
0.0
 10
279.731530
 20
895.261420
 30
0.0
 10
297.850760
 20
900.450820
 30
0.0
  0
SPLINE
  5
2b5
100
AcDbEntity
  8
Ebene_1
 62
1
100
AcDbSpline
 70
8
 71
3
 72
8
 73
4
 74
0
 40
0
 40
0
 40
0
 40
0
 40
1
 40
1
 40
1
 40
1
 10
297.850760
 20
900.450820
 30
0.0
 10
307.423990
 20
900.504120
 30
0.0
 10
313.122620
 20
902.964730
 30
0.0
 10
311.353080
 20
910.778110
 30
0.0
  0
SPLINE
  5
2b6
100
AcDbEntity
  8
Ebene_1
 62
1
100
AcDbSpline
 70
8
 71
3
 72
8
 73
4
 74
0
 40
0
 40
0
 40
0
 40
0
 40
1
 40
1
 40
1
 40
1
 10
311.353080
 20
910.778110
 30
0.0
 10
308.457510
 20
923.563430
 30
0.0
 10
284.233200
 20
916.399280
 30
0.0
 10
290.163890
 20
910.221800
 30
0.0
  0
SPLINE
  5
2b7
100
AcDbEntity
  8
Ebene_1
 62
1
100
AcDbSpline
 70
8
 71
3
 72
8
 73
4
 74
0
 40
0
 40
0
 40
0
 40
0
 40
1
 40
1
 40
1
 40
1
 10
290.163890
 20
910.221800
 30
0.0
 10
295.556150
 20
905.198140
 30
0.0
 10
292.886510
 20
901.111620
 30
0.0
 10
283.001020
 20
899.257100
 30
0.0
  0
SPLINE
  5
2b8
100
AcDbEntity
  8
Ebene_1
 62
1
100
AcDbSpline
 70
8
 71
3
 72
8
 73
4
 74
0
 40
0
 40
0
 40
0
 40
0
 40
1
 40
1
 40
1
 40
1
 10
283.001020
 20
899.257100
 30
0.0
 10
274.472110
 20
897.657080
 30
0.0
 10
268.295470
 20
899.567450
 30
0.0
 10
265.616610
 20
904.658050
 30
0.0
  0
SPLINE
  5
2b9
100
AcDbEntity
  8
Ebene_1
 62
1
100
AcDbSpline
 70
8
 71
3
 72
8
 73
4
 74
0
 40
0
 40
0
 40
0
 40
0
 40
1
 40
1
 40
1
 40
1
 10
265.616610
 20
904.658050
 30
0.0
 10
257.514440
 20
913.251620
 30
0.0
 10
253.657730
 20
898.251660
 30
0.0
 10
249.296580
 20
911.904900
 30
0.0
  0
SPLINE
  5
2ba
100
AcDbEntity
  8
Ebene_1
 62
1
100
AcDbSpline
 70
8
 71
3
 72
8
 73
4
 74
0
 40
0
 40
0
 40
0
 40
0
 40
1
 40
1
 40
1
 40
1
 10
249.296580
 20
911.904900
 30
0.0
 10
247.854100
 20
916.420790
 30
0.0
 10
248.527530
 20
918.585020
 30
0.0
 10
247.017650
 20
917.651840
 30
0.0
  0
SPLINE
  5
2bb
100
AcDbEntity
  8
Ebene_1
 62
1
100
AcDbSpline
 70
8
 71
3
 72
8
 73
4
 74
0
 40
0
 40
0
 40
0
 40
0
 40
1
 40
1
 40
1
 40
1
 10
247.017650
 20
917.651840
 30
0.0
 10
243.624460
 20
915.554740
 30
0.0
 10
245.922420
 20
898.866700
 30
0.0
 10
251.104220
 20
887.976130
 30
0.0
  0
SPLINE
  5
2bc
100
AcDbEntity
  8
Ebene_1
 62
1
100
AcDbSpline
 70
8
 71
3
 72
8
 73
4
 74
0
 40
0
 40
0
 40
0
 40
0
 40
1
 40
1
 40
1
 40
1
 10
251.104220
 20
887.976130
 30
0.0
 10
260.160930
 20
868.941670
 30
0.0
 10
278.255010
 20
854.782560
 30
0.0
 10
307.545730
 20
843.809320
 30
0.0
  0
SPLINE
  5
2bd
100
AcDbEntity
  8
Ebene_1
 62
1
100
AcDbSpline
 70
8
 71
3
 72
8
 73
4
 74
0
 40
0
 40
0
 40
0
 40
0
 40
1
 40
1
 40
1
 40
1
 10
307.545730
 20
843.809320
 30
0.0
 10
318.136670
 20
839.841620
 30
0.0
 10
321.165050
 20
835.193570
 30
0.0
 10
316.680060
 20
829.789500
 30
0.0
  0
SPLINE
  5
2be
100
AcDbEntity
  8
Ebene_1
 62
1
100
AcDbSpline
 70
8
 71
3
 72
8
 73
4
 74
0
 40
0
 40
0
 40
0
 40
0
 40
1
 40
1
 40
1
 40
1
 10
316.680060
 20
829.789500
 30
0.0
 10
313.238080
 20
825.642180
 30
0.0
 10
306.610490
 20
824.155000
 30
0.0
 10
294.822690
 20
830.951820
 30
0.0
  0
SPLINE
  5
2bf
100
AcDbEntity
  8
Ebene_1
 62
1
100
AcDbSpline
 70
8
 71
3
 72
8
 73
4
 74
0
 40
0
 40
0
 40
0
 40
0
 40
1
 40
1
 40
1
 40
1
 10
294.822690
 20
830.951820
 30
0.0
 10
279.612290
 20
838.263190
 30
0.0
 10
264.253370
 20
846.661660
 30
0.0
 10
254.407380
 20
856.767180
 30
0.0
  0
SPLINE
  5
2c0
100
AcDbEntity
  8
Ebene_1
 62
1
100
AcDbSpline
 70
8
 71
3
 72
8
 73
4
 74
0
 40
0
 40
0
 40
0
 40
0
 40
1
 40
1
 40
1
 40
1
 10
254.407380
 20
856.767180
 30
0.0
 10
242.779280
 20
868.826000
 30
0.0
 10
232.136730
 20
872.847370
 30
0.0
 10
217.614790
 20
870.669690
 30
0.0
  0
SPLINE
  5
2c1
100
AcDbEntity
  8
Ebene_1
 62
1
100
AcDbSpline
 70
8
 71
3
 72
8
 73
4
 74
0
 40
0
 40
0
 40
0
 40
0
 40
1
 40
1
 40
1
 40
1
 10
217.614790
 20
870.669690
 30
0.0
 10
207.308350
 20
869.124130
 30
0.0
 10
192.053561
 20
857.501280
 30
0.0
 10
192.053561
 20
851.194400
 30
0.0
  0
SPLINE
  5
2c2
100
AcDbEntity
  8
Ebene_1
 62
1
100
AcDbSpline
 70
8
 71
3
 72
8
 73
4
 74
0
 40
0
 40
0
 40
0
 40
0
 40
1
 40
1
 40
1
 40
1
 10
192.053561
 20
851.194400
 30
0.0
 10
192.053561
 20
845.375850
 30
0.0
 10
188.503231
 20
846.426640
 30
0.0
 10
184.950635
 20
853.296590
 30
0.0
  0
SPLINE
  5
2c3
100
AcDbEntity
  8
Ebene_1
 62
1
100
AcDbSpline
 70
8
 71
3
 72
8
 73
4
 74
0
 40
0
 40
0
 40
0
 40
0
 40
1
 40
1
 40
1
 40
1
 10
184.950635
 20
853.296590
 30
0.0
 10
178.974701
 20
864.852770
 30
0.0
 10
182.208453
 20
876.481910
 30
0.0
 10
197.121980
 20
897.064980
 30
0.0
  0
SPLINE
  5
2c4
100
AcDbEntity
  8
Ebene_1
 62
1
100
AcDbSpline
 70
8
 71
3
 72
8
 73
4
 74
0
 40
0
 40
0
 40
0
 40
0
 40
1
 40
1
 40
1
 40
1
 10
197.121980
 20
897.064980
 30
0.0
 10
209.068760
 20
913.553470
 30
0.0
 10
206.463990
 20
932.020040
 30
0.0
 10
190.288294
 20
945.514740
 30
0.0
  0
SPLINE
  5
2c5
100
AcDbEntity
  8
Ebene_1
 62
1
100
AcDbSpline
 70
8
 71
3
 72
8
 73
4
 74
0
 40
0
 40
0
 40
0
 40
0
 40
1
 40
1
 40
1
 40
1
 10
190.288294
 20
945.514740
 30
0.0
 10
159.987774
 20
984.725560
 30
0.0
 10
191.092449
 20
1013.831160
 30
0.0
 10
220.401180
 20
1013.883170
 30
0.0
  0
SPLINE
  5
2c6
100
AcDbEntity
  8
Ebene_1
 62
1
100
AcDbSpline
 70
8
 71
3
 72
8
 73
4
 74
0
 40
0
 40
0
 40
0
 40
0
 40
1
 40
1
 40
1
 40
1
 10
220.401180
 20
1013.883170
 30
0.0
 10
239.138410
 20
1013.883170
 30
0.0
 10
243.574250
 20
1011.150950
 30
0.0
 10
258.575600
 20
990.372460
 30
0.0
  0
SPLINE
  5
2c7
100
AcDbEntity
  8
Ebene_1
 62
1
100
AcDbSpline
 70
8
 71
3
 72
8
 73
4
 74
0
 40
0
 40
0
 40
0
 40
0
 40
1
 40
1
 40
1
 40
1
 10
258.575600
 20
990.372460
 30
0.0
 10
263.852230
 20
983.063770
 30
0.0
 10
272.751720
 20
972.365070
 30
0.0
 10
278.352170
 20
966.597690
 30
0.0
  0
SPLINE
  5
2c8
100
AcDbEntity
  8
Ebene_1
 62
1
100
AcDbSpline
 70
8
 71
3
 72
8
 73
4
 74
0
 40
0
 40
0
 40
0
 40
0
 40
1
 40
1
 40
1
 40
1
 10
278.352170
 20
966.597690
 30
0.0
 10
290.071130
 20
954.529400
 30
0.0
 10
267.414830
 20
941.280100
 30
0.0
 10
279.818480
 20
943.740250
 30
0.0
  0
SPLINE
  5
2c9
100
AcDbEntity
  8
Ebene_1
 62
1
100
AcDbSpline
 70
8
 71
3
 72
8
 73
4
 74
0
 40
0
 40
0
 40
0
 40
0
 40
1
 40
1
 40
1
 40
1
 10
279.818480
 20
943.740250
 30
0.0
 10
300.863720
 20
951.420210
 30
0.0
 10
309.483460
 20
938.758680
 30
0.0
 10
318.506590
 20
940.051490
 30
0.0
  0
SPLINE
  5
2ca
100
AcDbEntity
  8
Ebene_1
 62
1
100
AcDbSpline
 70
8
 71
3
 72
8
 73
4
 74
0
 40
0
 40
0
 40
0
 40
0
 40
1
 40
1
 40
1
 40
1
 10
318.506590
 20
940.051490
 30
0.0
 10
324.124440
 20
941.873460
 30
0.0
 10
327.923110
 20
940.707410
 30
0.0
 10
333.711580
 20
939.952290
 30
0.0
  0
SPLINE
  5
2cb
100
AcDbEntity
  8
Ebene_1
 62
1
100
AcDbSpline
 70
8
 71
3
 72
8
 73
4
 74
0
 40
0
 40
0
 40
0
 40
0
 40
1
 40
1
 40
1
 40
1
 10
333.711580
 20
939.952290
 30
0.0
 10
352.676650
 20
944.716170
 30
0.0
 10
356.913970
 20
945.305390
 30
0.0
 10
370.434050
 20
943.071990
 30
0.0
  0
SPLINE
  5
2cc
100
AcDbEntity
  8
Ebene_1
 62
1
100
AcDbSpline
 70
8
 71
3
 72
8
 73
4
 74
0
 40
0
 40
0
 40
0
 40
0
 40
1
 40
1
 40
1
 40
1
 10
370.434050
 20
943.071990
 30
0.0
 10
374.352890
 20
942.424640
 30
0.0
 10
359.693460
 20
952.752030
 30
0.0
 10
359.693460
 20
954.479050
 30
0.0
  0
SPLINE
  5
2cd
100
AcDbEntity
  8
Ebene_1
 62
1
100
AcDbSpline
 70
8
 71
3
 72
8
 73
4
 74
0
 40
0
 40
0
 40
0
 40
0
 40
1
 40
1
 40
1
 40
1
 10
359.693460
 20
954.479050
 30
0.0
 10
359.693460
 20
956.206080
 30
0.0
 10
364.125480
 20
962.512650
 30
0.0
 10
369.541950
 20
968.493700
 30
0.0
  0
SPLINE
  5
2ce
100
AcDbEntity
  8
Ebene_1
 62
1
100
AcDbSpline
 70
8
 71
3
 72
8
 73
4
 74
0
 40
0
 40
0
 40
0
 40
0
 40
1
 40
1
 40
1
 40
1
 10
369.541950
 20
968.493700
 30
0.0
 10
374.958390
 20
974.474750
 30
0.0
 10
382.259020
 20
984.374050
 30
0.0
 10
385.765770
 20
990.492350
 30
0.0
  0
SPLINE
  5
2cf
100
AcDbEntity
  8
Ebene_1
 62
1
100
AcDbSpline
 70
8
 71
3
 72
8
 73
4
 74
0
 40
0
 40
0
 40
0
 40
0
 40
1
 40
1
 40
1
 40
1
 10
385.765770
 20
990.492350
 30
0.0
 10
393.159960
 20
1003.393200
 30
0.0
 10
403.242000
 20
1013.731020
 30
0.0
 10
411.447400
 20
1016.824600
 30
0.0
  0
SPLINE
  5
2d0
100
AcDbEntity
  8
Ebene_1
 62
1
100
AcDbSpline
 70
8
 71
3
 72
8
 73
4
 74
0
 40
0
 40
0
 40
0
 40
0
 40
1
 40
1
 40
1
 40
1
 10
411.447400
 20
1016.824600
 30
0.0
 10
414.947200
 20
1018.144070
 30
0.0
 10
419.373660
 20
1018.839400
 30
0.0
 10
424.012010
 20
1018.952120
 30
0.0
  0
SPLINE
  5
2d1
100
AcDbEntity
  8
Ebene_1
 62
1
100
AcDbSpline
 70
8
 71
3
 72
8
 73
4
 74
0
 40
0
 40
0
 40
0
 40
0
 40
1
 40
1
 40
1
 40
1
 10
424.012010
 20
1018.952120
 30
0.0
 10
431.742590
 20
1019.139970
 30
0.0
 10
440.062760
 20
1017.709120
 30
0.0
 10
445.667020
 20
1014.850040
 30
0.0
  0
SPLINE
  5
2d2
100
AcDbEntity
  8
Ebene_1
 62
1
100
AcDbSpline
 70
8
 71
3
 72
8
 73
4
 74
0
 40
0
 40
0
 40
0
 40
0
 40
1
 40
1
 40
1
 40
1
 10
445.667020
 20
1014.850040
 30
0.0
 10
450.134950
 20
1012.570670
 30
0.0
 10
456.537970
 20
1006.912460
 30
0.0
 10
459.896120
 20
1002.276650
 30
0.0
  0
SPLINE
  5
2d3
100
AcDbEntity
  8
Ebene_1
 62
1
100
AcDbSpline
 70
8
 71
3
 72
8
 73
4
 74
0
 40
0
 40
0
 40
0
 40
0
 40
1
 40
1
 40
1
 40
1
 10
459.896120
 20
1002.276650
 30
0.0
 10
465.553650
 20
994.466670
 30
0.0
 10
466.002210
 20
992.550290
 30
0.0
 10
466.002210
 20
976.170230
 30
0.0
  0
LWPOLYLINE
  5
2d4
100
AcDbEntity
  8
Ebene_1
 62
1
100
AcDbPolyline
 90
1
 70
1
 10
450.811880
 20
827.908900
 30
0.0
  0
SPLINE
  5
2d5
100
AcDbEntity
  8
Ebene_1
 62
1
100
AcDbSpline
 70
8
 71
3
 72
8
 73
4
 74
0
 40
0
 40
0
 40
0
 40
0
 40
1
 40
1
 40
1
 40
1
 10
457.856460
 20
950.538200
 30
0.0
 10
448.843580
 20
941.737370
 30
0.0
 10
445.025610
 20
932.682800
 30
0.0
 10
445.193660
 20
920.505930
 30
0.0
  0
SPLINE
  5
2d6
100
AcDbEntity
  8
Ebene_1
 62
1
100
AcDbSpline
 70
8
 71
3
 72
8
 73
4
 74
0
 40
0
 40
0
 40
0
 40
0
 40
1
 40
1
 40
1
 40
1
 10
445.193660
 20
920.505930
 30
0.0
 10
445.284160
 20
913.947240
 30
0.0
 10
447.450180
 20
909.650120
 30
0.0
 10
456.851350
 20
897.376070
 30
0.0
  0
SPLINE
  5
2d7
100
AcDbEntity
  8
Ebene_1
 62
1
100
AcDbSpline
 70
8
 71
3
 72
8
 73
4
 74
0
 40
0
 40
0
 40
0
 40
0
 40
1
 40
1
 40
1
 40
1
 10
456.851350
 20
897.376070
 30
0.0
 10
469.577180
 20
880.761390
 30
0.0
 10
469.190700
 20
867.854040
 30
0.0
 10
465.010510
 20
855.187920
 30
0.0
  0
SPLINE
  5
2d8
100
AcDbEntity
  8
Ebene_1
 62
1
100
AcDbSpline
 70
8
 71
3
 72
8
 73
4
 74
0
 40
0
 40
0
 40
0
 40
0
 40
1
 40
1
 40
1
 40
1
 10
465.010510
 20
855.187920
 30
0.0
 10
462.207470
 20
846.694600
 30
0.0
 10
457.505460
 20
845.552480
 30
0.0
 10
454.786330
 20
852.704350
 30
0.0
  0
SPLINE
  5
2d9
100
AcDbEntity
  8
Ebene_1
 62
1
100
AcDbSpline
 70
8
 71
3
 72
8
 73
4
 74
0
 40
0
 40
0
 40
0
 40
0
 40
1
 40
1
 40
1
 40
1
 10
454.786330
 20
852.704350
 30
0.0
 10
453.759580
 20
855.404910
 30
0.0
 10
452.690690
 20
863.724150
 30
0.0
 10
448.604310
 20
866.840990
 30
0.0
  0
SPLINE
  5
2da
100
AcDbEntity
  8
Ebene_1
 62
1
100
AcDbSpline
 70
8
 71
3
 72
8
 73
4
 74
0
 40
0
 40
0
 40
0
 40
0
 40
1
 40
1
 40
1
 40
1
 10
448.604310
 20
866.840990
 30
0.0
 10
439.779680
 20
873.571860
 30
0.0
 10
422.835880
 20
875.855730
 30
0.0
 10
412.347090
 20
871.728030
 30
0.0
  0
SPLINE
  5
2db
100
AcDbEntity
  8
Ebene_1
 62
1
100
AcDbSpline
 70
8
 71
3
 72
8
 73
4
 74
0
 40
0
 40
0
 40
0
 40
0
 40
1
 40
1
 40
1
 40
1
 10
412.347090
 20
871.728030
 30
0.0
 10
395.209320
 20
852.399790
 30
0.0
 10
370.677270
 20
843.787210
 30
0.0
 10
351.861890
 20
831.868440
 30
0.0
  0
SPLINE
  5
2dc
100
AcDbEntity
  8
Ebene_1
 62
1
100
AcDbSpline
 70
8
 71
3
 72
8
 73
4
 74
0
 40
0
 40
0
 40
0
 40
0
 40
1
 40
1
 40
1
 40
1
 10
351.861890
 20
831.868440
 30
0.0
 10
347.776510
 20
829.092350
 30
0.0
 10
343.451300
 20
826.821210
 30
0.0
 10
342.250590
 20
826.821210
 30
0.0
  0
SPLINE
  5
2dd
100
AcDbEntity
  8
Ebene_1
 62
1
100
AcDbSpline
 70
8
 71
3
 72
8
 73
4
 74
0
 40
0
 40
0
 40
0
 40
0
 40
1
 40
1
 40
1
 40
1
 10
342.250590
 20
826.821210
 30
0.0
 10
338.960310
 20
826.821210
 30
0.0
 10
335.161100
 20
831.288370
 30
0.0
 10
335.161100
 20
835.157130
 30
0.0
  0
SPLINE
  5
2de
100
AcDbEntity
  8
Ebene_1
 62
1
100
AcDbSpline
 70
8
 71
3
 72
8
 73
4
 74
0
 40
0
 40
0
 40
0
 40
0
 40
1
 40
1
 40
1
 40
1
 10
335.161100
 20
835.157130
 30
0.0
 10
335.161100
 20
839.962470
 30
0.0
 10
338.921530
 20
842.580360
 30
0.0
 10
352.573480
 20
847.277320
 30
0.0
  0
SPLINE
  5
2df
100
AcDbEntity
  8
Ebene_1
 62
1
100
AcDbSpline
 70
8
 71
3
 72
8
 73
4
 74
0
 40
0
 40
0
 40
0
 40
0
 40
1
 40
1
 40
1
 40
1
 10
352.573480
 20
847.277320
 30
0.0
 10
373.981900
 20
854.642900
 30
0.0
 10
394.610270
 20
874.464630
 30
0.0
 10
401.659370
 20
894.443950
 30
0.0
  0
SPLINE
  5
2e0
100
AcDbEntity
  8
Ebene_1
 62
1
100
AcDbSpline
 70
8
 71
3
 72
8
 73
4
 74
0
 40
0
 40
0
 40
0
 40
0
 40
1
 40
1
 40
1
 40
1
 10
401.659370
 20
894.443950
 30
0.0
 10
405.084660
 20
904.152270
 30
0.0
 10
405.695820
 20
920.863530
 30
0.0
 10
402.625720
 20
920.863530
 30
0.0
  0
SPLINE
  5
2e1
100
AcDbEntity
  8
Ebene_1
 62
1
100
AcDbSpline
 70
8
 71
3
 72
8
 73
4
 74
0
 40
0
 40
0
 40
0
 40
0
 40
1
 40
1
 40
1
 40
1
 10
402.625720
 20
920.863530
 30
0.0
 10
401.501300
 20
920.863530
 30
0.0
 10
398.356710
 20
917.643340
 30
0.0
 10
398.356710
 20
913.707890
 30
0.0
  0
SPLINE
  5
2e2
100
AcDbEntity
  8
Ebene_1
 62
1
100
AcDbSpline
 70
8
 71
3
 72
8
 73
4
 74
0
 40
0
 40
0
 40
0
 40
0
 40
1
 40
1
 40
1
 40
1
 10
398.356710
 20
913.707890
 30
0.0
 10
398.356710
 20
899.109290
 30
0.0
 10
388.390150
 20
913.830070
 30
0.0
 10
376.613550
 20
904.889070
 30
0.0
  0
SPLINE
  5
2e3
100
AcDbEntity
  8
Ebene_1
 62
1
100
AcDbSpline
 70
8
 71
3
 72
8
 73
4
 74
0
 40
0
 40
0
 40
0
 40
0
 40
1
 40
1
 40
1
 40
1
 10
376.613550
 20
904.889070
 30
0.0
 10
370.851930
 20
900.514750
 30
0.0
 10
367.142240
 20
903.237810
 30
0.0
 10
361.375010
 20
910.425920
 30
0.0
  0
LWPOLYLINE
  5
2e4
100
AcDbEntity
  8
Ebene_1
 62
1
100
AcDbPolyline
 90
3
 70
0
 10
466.002210
 20
976.170230
 30
0.0
 10
466.002210
 20
958.492240
 30
0.0
 10
457.856460
 20
950.538200
 30
0.0
  0
SPLINE
  5
2e5
100
AcDbEntity
  8
Ebene_1
 62
1
100
AcDbSpline
 70
8
 71
3
 72
8
 73
4
 74
0
 40
0
 40
0
 40
0
 40
0
 40
1
 40
1
 40
1
 40
1
 10
351.582810
 20
1031.026270
 30
0.0
 10
348.615020
 20
1031.002870
 30
0.0
 10
344.270220
 20
1030.200510
 30
0.0
 10
336.446270
 20
1028.602650
 30
0.0
  0
SPLINE
  5
2e6
100
AcDbEntity
  8
Ebene_1
 62
1
100
AcDbSpline
 70
8
 71
3
 72
8
 73
4
 74
0
 40
0
 40
0
 40
0
 40
0
 40
1
 40
1
 40
1
 40
1
 10
336.446270
 20
1028.602650
 30
0.0
 10
324.135610
 20
1026.088430
 30
0.0
 10
315.807230
 20
1025.556040
 30
0.0
 10
306.174730
 20
1026.667880
 30
0.0
  0
SPLINE
  5
2e7
100
AcDbEntity
  8
Ebene_1
 62
1
100
AcDbSpline
 70
8
 71
3
 72
8
 73
4
 74
0
 40
0
 40
0
 40
0
 40
0
 40
1
 40
1
 40
1
 40
1
 10
306.174730
 20
1026.667880
 30
0.0
 10
283.776450
 20
1029.253240
 30
0.0
 10
279.272550
 20
1029.005930
 30
0.0
 10
276.779110
 20
1025.051960
 30
0.0
  0
SPLINE
  5
2e8
100
AcDbEntity
  8
Ebene_1
 62
1
100
AcDbSpline
 70
8
 71
3
 72
8
 73
4
 74
0
 40
0
 40
0
 40
0
 40
0
 40
1
 40
1
 40
1
 40
1
 10
276.779110
 20
1025.051960
 30
0.0
 10
274.119860
 20
1020.835050
 30
0.0
 10
276.991590
 20
1018.121390
 30
0.0
 10
286.241580
 20
1016.110390
 30
0.0
  0
SPLINE
  5
2e9
100
AcDbEntity
  8
Ebene_1
 62
1
100
AcDbSpline
 70
8
 71
3
 72
8
 73
4
 74
0
 40
0
 40
0
 40
0
 40
0
 40
1
 40
1
 40
1
 40
1
 10
286.241580
 20
1016.110390
 30
0.0
 10
300.850970
 20
1013.919220
 30
0.0
 10
303.370800
 20
1003.418210
 30
0.0
 10
306.603530
 20
993.326450
 30
0.0
  0
SPLINE
  5
2ea
100
AcDbEntity
  8
Ebene_1
 62
1
100
AcDbSpline
 70
8
 71
3
 72
8
 73
4
 74
0
 40
0
 40
0
 40
0
 40
0
 40
1
 40
1
 40
1
 40
1
 10
306.603530
 20
993.326450
 30
0.0
 10
291.771790
 20
992.855560
 30
0.0
 10
281.598900
 20
991.809130
 30
0.0
 10
280.448560
 20
990.654510
 30
0.0
  0
SPLINE
  5
2eb
100
AcDbEntity
  8
Ebene_1
 62
1
100
AcDbSpline
 70
8
 71
3
 72
8
 73
4
 74
0
 40
0
 40
0
 40
0
 40
0
 40
1
 40
1
 40
1
 40
1
 10
280.448560
 20
990.654510
 30
0.0
 10
277.588300
 20
987.783620
 30
0.0
 10
281.387550
 20
979.973730
 30
0.0
 10
292.903090
 20
980.868030
 30
0.0
  0
SPLINE
  5
2ec
100
AcDbEntity
  8
Ebene_1
 62
1
100
AcDbSpline
 70
8
 71
3
 72
8
 73
4
 74
0
 40
0
 40
0
 40
0
 40
0
 40
1
 40
1
 40
1
 40
1
 10
292.903090
 20
980.868030
 30
0.0
 10
298.159860
 20
981.276270
 30
0.0
 10
292.949790
 20
973.563290
 30
0.0
 10
301.376990
 20
972.137810
 30
0.0
  0
SPLINE
  5
2ed
100
AcDbEntity
  8
Ebene_1
 62
1
100
AcDbSpline
 70
8
 71
3
 72
8
 73
4
 74
0
 40
0
 40
0
 40
0
 40
0
 40
1
 40
1
 40
1
 40
1
 10
301.376990
 20
972.137810
 30
0.0
 10
303.902890
 20
971.710550
 30
0.0
 10
305.359280
 20
971.372830
 30
0.0
 10
308.921740
 20
971.121860
 30
0.0
  0
SPLINE
  5
2ee
100
AcDbEntity
  8
Ebene_1
 62
1
100
AcDbSpline
 70
8
 71
3
 72
8
 73
4
 74
0
 40
0
 40
0
 40
0
 40
0
 40
1
 40
1
 40
1
 40
1
 10
308.921740
 20
971.121860
 30
0.0
 10
309.670160
 20
957.068440
 30
0.0
 10
306.362140
 20
963.403090
 30
0.0
 10
298.544860
 20
958.551170
 30
0.0
  0
SPLINE
  5
2ef
100
AcDbEntity
  8
Ebene_1
 62
1
100
AcDbSpline
 70
8
 71
3
 72
8
 73
4
 74
0
 40
0
 40
0
 40
0
 40
0
 40
1
 40
1
 40
1
 40
1
 10
298.544860
 20
958.551170
 30
0.0
 10
292.574910
 20
954.767810
 30
0.0
 10
292.588700
 20
940.822590
 30
0.0
 10
305.940530
 20
936.103660
 30
0.0
  0
SPLINE
  5
2f0
100
AcDbEntity
  8
Ebene_1
 62
1
100
AcDbSpline
 70
8
 71
3
 72
8
 73
4
 74
0
 40
0
 40
0
 40
0
 40
0
 40
1
 40
1
 40
1
 40
1
 10
305.940530
 20
936.103660
 30
0.0
 10
320.485740
 20
930.962960
 30
0.0
 10
337.882200
 20
934.404510
 30
0.0
 10
341.732140
 20
938.254430
 30
0.0
  0
SPLINE
  5
2f1
100
AcDbEntity
  8
Ebene_1
 62
1
100
AcDbSpline
 70
8
 71
3
 72
8
 73
4
 74
0
 40
0
 40
0
 40
0
 40
0
 40
1
 40
1
 40
1
 40
1
 10
341.732140
 20
938.254430
 30
0.0
 10
345.619490
 20
942.141780
 30
0.0
 10
346.834120
 20
958.302770
 30
0.0
 10
340.453410
 20
958.800250
 30
0.0
  0
SPLINE
  5
2f2
100
AcDbEntity
  8
Ebene_1
 62
1
100
AcDbSpline
 70
8
 71
3
 72
8
 73
4
 74
0
 40
0
 40
0
 40
0
 40
0
 40
1
 40
1
 40
1
 40
1
 10
340.453410
 20
958.800250
 30
0.0
 10
328.087070
 20
959.764390
 30
0.0
 10
330.914310
 20
968.291370
 30
0.0
 10
331.144690
 20
970.608710
 30
0.0
  0
SPLINE
  5
2f3
100
AcDbEntity
  8
Ebene_1
 62
1
100
AcDbSpline
 70
8
 71
3
 72
8
 73
4
 74
0
 40
0
 40
0
 40
0
 40
0
 40
1
 40
1
 40
1
 40
1
 10
331.144690
 20
970.608710
 30
0.0
 10
337.479020
 20
970.719020
 30
0.0
 10
342.625900
 20
971.103090
 30
0.0
 10
344.319080
 20
971.752830
 30
0.0
  0
SPLINE
  5
2f4
100
AcDbEntity
  8
Ebene_1
 62
1
100
AcDbSpline
 70
8
 71
3
 72
8
 73
4
 74
0
 40
0
 40
0
 40
0
 40
0
 40
1
 40
1
 40
1
 40
1
 10
344.319080
 20
971.752830
 30
0.0
 10
346.097660
 20
972.435320
 30
0.0
 10
347.552990
 20
974.635810
 30
0.0
 10
347.552990
 20
976.642450
 30
0.0
  0
SPLINE
  5
2f5
100
AcDbEntity
  8
Ebene_1
 62
1
100
AcDbSpline
 70
8
 71
3
 72
8
 73
4
 74
0
 40
0
 40
0
 40
0
 40
0
 40
1
 40
1
 40
1
 40
1
 10
347.552990
 20
976.642450
 30
0.0
 10
347.552990
 20
978.853710
 30
0.0
 10
349.618430
 20
980.809330
 30
0.0
 10
352.796590
 20
981.607000
 30
0.0
  0
SPLINE
  5
2f6
100
AcDbEntity
  8
Ebene_1
 62
1
100
AcDbSpline
 70
8
 71
3
 72
8
 73
4
 74
0
 40
0
 40
0
 40
0
 40
0
 40
1
 40
1
 40
1
 40
1
 10
352.796590
 20
981.607000
 30
0.0
 10
356.752730
 20
982.599920
 30
0.0
 10
357.882040
 20
984.034670
 30
0.0
 10
357.396310
 20
987.450580
 30
0.0
  0
SPLINE
  5
2f7
100
AcDbEntity
  8
Ebene_1
 62
1
100
AcDbSpline
 70
8
 71
3
 72
8
 73
4
 74
0
 40
0
 40
0
 40
0
 40
0
 40
1
 40
1
 40
1
 40
1
 10
357.396310
 20
987.450580
 30
0.0
 10
356.907030
 20
990.891360
 30
0.0
 10
355.035910
 20
992.223290
 30
0.0
 10
349.600920
 20
993.000110
 30
0.0
  0
SPLINE
  5
2f8
100
AcDbEntity
  8
Ebene_1
 62
1
100
AcDbSpline
 70
8
 71
3
 72
8
 73
4
 74
0
 40
0
 40
0
 40
0
 40
0
 40
1
 40
1
 40
1
 40
1
 10
349.600920
 20
993.000110
 30
0.0
 10
342.645720
 20
993.588500
 30
0.0
 10
340.209130
 20
993.588520
 30
0.0
 10
334.155900
 20
993.538080
 30
0.0
  0
SPLINE
  5
2f9
100
AcDbEntity
  8
Ebene_1
 62
1
100
AcDbSpline
 70
8
 71
3
 72
8
 73
4
 74
0
 40
0
 40
0
 40
0
 40
0
 40
1
 40
1
 40
1
 40
1
 10
334.155900
 20
993.538080
 30
0.0
 10
336.311080
 20
1009.524100
 30
0.0
 10
339.912740
 20
1010.437320
 30
0.0
 10
352.762590
 20
1015.292370
 30
0.0
  0
SPLINE
  5
2fa
100
AcDbEntity
  8
Ebene_1
 62
1
100
AcDbSpline
 70
8
 71
3
 72
8
 73
4
 74
0
 40
0
 40
0
 40
0
 40
0
 40
1
 40
1
 40
1
 40
1
 10
352.762590
 20
1015.292370
 30
0.0
 10
362.535830
 20
1019.234980
 30
0.0
 10
364.808730
 20
1024.615370
 30
0.0
 10
358.458360
 20
1028.776300
 30
0.0
  0
SPLINE
  5
2fb
100
AcDbEntity
  8
Ebene_1
 62
1
100
AcDbSpline
 70
8
 71
3
 72
8
 73
4
 74
0
 40
0
 40
0
 40
0
 40
0
 40
1
 40
1
 40
1
 40
1
 10
358.458360
 20
1028.776300
 30
0.0
 10
356.141760
 20
1030.294200
 30
0.0
 10
354.550620
 20
1031.049690
 30
0.0
 10
351.582810
 20
1031.026290
 30
0.0
  0
LWPOLYLINE
  5
2fc
100
AcDbEntity
  8
Ebene_1
 62
1
100
AcDbPolyline
 90
1
 70
1
 10
361.375010
 20
910.425920
 30
0.0
  0
SPLINE
  5
2fd
100
AcDbEntity
  8
Ebene_1
 62
1
100
AcDbSpline
 70
8
 71
3
 72
8
 73
4
 74
0
 40
0
 40
0
 40
0
 40
0
 40
1
 40
1
 40
1
 40
1
 10
318.683890
 20
1179.536390
 30
0.0
 10
315.494110
 20
1179.550190
 30
0.0
 10
311.723220
 20
1179.408810
 30
0.0
 10
307.223090
 20
1179.148300
 30
0.0
  0
SPLINE
  5
2fe
100
AcDbEntity
  8
Ebene_1
 62
1
100
AcDbSpline
 70
8
 71
3
 72
8
 73
4
 74
0
 40
0
 40
0
 40
0
 40
0
 40
1
 40
1
 40
1
 40
1
 10
307.223090
 20
1179.148300
 30
0.0
 10
291.856230
 20
1178.258720
 30
0.0
 10
297.222770
 20
1159.511310
 30
0.0
 10
292.275440
 20
1153.701380
 30
0.0
  0
SPLINE
  5
2ff
100
AcDbEntity
  8
Ebene_1
 62
1
100
AcDbSpline
 70
8
 71
3
 72
8
 73
4
 74
0
 40
0
 40
0
 40
0
 40
0
 40
1
 40
1
 40
1
 40
1
 10
292.275440
 20
1153.701380
 30
0.0
 10
289.349460
 20
1150.265200
 30
0.0
 10
284.107320
 20
1149.857130
 30
0.0
 10
281.577390
 20
1148.579730
 30
0.0
  0
SPLINE
  5
300
100
AcDbEntity
  8
Ebene_1
 62
1
100
AcDbSpline
 70
8
 71
3
 72
8
 73
4
 74
0
 40
0
 40
0
 40
0
 40
0
 40
1
 40
1
 40
1
 40
1
 10
281.577390
 20
1148.579730
 30
0.0
 10
273.351100
 20
1144.426180
 30
0.0
 10
272.116350
 20
1137.025880
 30
0.0
 10
283.373660
 20
1134.325300
 30
0.0
  0
SPLINE
  5
301
100
AcDbEntity
  8
Ebene_1
 62
1
100
AcDbSpline
 70
8
 71
3
 72
8
 73
4
 74
0
 40
0
 40
0
 40
0
 40
0
 40
1
 40
1
 40
1
 40
1
 10
283.373660
 20
1134.325300
 30
0.0
 10
288.910620
 20
1132.997000
 30
0.0
 10
299.107720
 20
1132.812430
 30
0.0
 10
299.780180
 20
1131.060000
 30
0.0
  0
SPLINE
  5
302
100
AcDbEntity
  8
Ebene_1
 62
1
100
AcDbSpline
 70
8
 71
3
 72
8
 73
4
 74
0
 40
0
 40
0
 40
0
 40
0
 40
1
 40
1
 40
1
 40
1
 10
299.780180
 20
1131.060000
 30
0.0
 10
300.411050
 20
1129.415980
 30
0.0
 10
303.667560
 20
1122.887130
 30
0.0
 10
300.123030
 20
1122.845900
 30
0.0
  0
SPLINE
  5
303
100
AcDbEntity
  8
Ebene_1
 62
1
100
AcDbSpline
 70
8
 71
3
 72
8
 73
4
 74
0
 40
0
 40
0
 40
0
 40
0
 40
1
 40
1
 40
1
 40
1
 10
300.123030
 20
1122.845900
 30
0.0
 10
279.811670
 20
1122.609610
 30
0.0
 10
274.529710
 20
1121.228850
 30
0.0
 10
275.404250
 20
1115.085800
 30
0.0
  0
SPLINE
  5
304
100
AcDbEntity
  8
Ebene_1
 62
1
100
AcDbSpline
 70
8
 71
3
 72
8
 73
4
 74
0
 40
0
 40
0
 40
0
 40
0
 40
1
 40
1
 40
1
 40
1
 10
275.404250
 20
1115.085800
 30
0.0
 10
275.911460
 20
1111.522970
 30
0.0
 10
278.131400
 20
1108.498640
 30
0.0
 10
285.102240
 20
1107.568280
 30
0.0
  0
SPLINE
  5
305
100
AcDbEntity
  8
Ebene_1
 62
1
100
AcDbSpline
 70
8
 71
3
 72
8
 73
4
 74
0
 40
0
 40
0
 40
0
 40
0
 40
1
 40
1
 40
1
 40
1
 10
285.102240
 20
1107.568280
 30
0.0
 10
289.903340
 20
1106.927500
 30
0.0
 10
297.119690
 20
1107.205420
 30
0.0
 10
298.446640
 20
1105.878460
 30
0.0
  0
SPLINE
  5
306
100
AcDbEntity
  8
Ebene_1
 62
1
100
AcDbSpline
 70
8
 71
3
 72
8
 73
4
 74
0
 40
0
 40
0
 40
0
 40
0
 40
1
 40
1
 40
1
 40
1
 10
298.446640
 20
1105.878460
 30
0.0
 10
299.376920
 20
1104.948190
 30
0.0
 10
306.535020
 20
1101.340690
 30
0.0
 10
303.475790
 20
1097.892900
 30
0.0
  0
SPLINE
  5
307
100
AcDbEntity
  8
Ebene_1
 62
1
100
AcDbSpline
 70
8
 71
3
 72
8
 73
4
 74
0
 40
0
 40
0
 40
0
 40
0
 40
1
 40
1
 40
1
 40
1
 10
303.475790
 20
1097.892900
 30
0.0
 10
298.120270
 20
1091.857170
 30
0.0
 10
302.864690
 20
1090.750550
 30
0.0
 10
302.856400
 20
1087.918800
 30
0.0
  0
SPLINE
  5
308
100
AcDbEntity
  8
Ebene_1
 62
1
100
AcDbSpline
 70
8
 71
3
 72
8
 73
4
 74
0
 40
0
 40
0
 40
0
 40
0
 40
1
 40
1
 40
1
 40
1
 10
302.856400
 20
1087.918800
 30
0.0
 10
302.848400
 20
1085.173310
 30
0.0
 10
288.957040
 20
1084.471970
 30
0.0
 10
284.764790
 20
1084.025010
 30
0.0
  0
SPLINE
  5
309
100
AcDbEntity
  8
Ebene_1
 62
1
100
AcDbSpline
 70
8
 71
3
 72
8
 73
4
 74
0
 40
0
 40
0
 40
0
 40
0
 40
1
 40
1
 40
1
 40
1
 10
284.764790
 20
1084.025010
 30
0.0
 10
276.272670
 20
1083.119590
 30
0.0
 10
273.306570
 20
1081.655770
 30
0.0
 10
273.306570
 20
1078.370060
 30
0.0
  0
SPLINE
  5
30a
100
AcDbEntity
  8
Ebene_1
 62
1
100
AcDbSpline
 70
8
 71
3
 72
8
 73
4
 74
0
 40
0
 40
0
 40
0
 40
0
 40
1
 40
1
 40
1
 40
1
 10
273.306570
 20
1078.370060
 30
0.0
 10
273.306570
 20
1075.194310
 30
0.0
 10
279.327800
 20
1073.027640
 30
0.0
 10
288.274140
 20
1072.984340
 30
0.0
  0
SPLINE
  5
30b
100
AcDbEntity
  8
Ebene_1
 62
1
100
AcDbSpline
 70
8
 71
3
 72
8
 73
4
 74
0
 40
0
 40
0
 40
0
 40
0
 40
1
 40
1
 40
1
 40
1
 10
288.274140
 20
1072.984340
 30
0.0
 10
291.446570
 20
1072.968040
 30
0.0
 10
295.539340
 20
1071.459350
 30
0.0
 10
297.369190
 20
1069.629510
 30
0.0
  0
SPLINE
  5
30c
100
AcDbEntity
  8
Ebene_1
 62
1
100
AcDbSpline
 70
8
 71
3
 72
8
 73
4
 74
0
 40
0
 40
0
 40
0
 40
0
 40
1
 40
1
 40
1
 40
1
 10
297.369190
 20
1069.629510
 30
0.0
 10
298.307960
 20
1068.690740
 30
0.0
 10
300.450930
 20
1068.010460
 30
0.0
 10
303.295440
 20
1067.562970
 30
0.0
  0
SPLINE
  5
30d
100
AcDbEntity
  8
Ebene_1
 62
1
100
AcDbSpline
 70
8
 71
3
 72
8
 73
4
 74
0
 40
0
 40
0
 40
0
 40
0
 40
1
 40
1
 40
1
 40
1
 10
303.295440
 20
1067.562970
 30
0.0
 10
302.725430
 20
1063.002880
 30
0.0
 10
302.214170
 20
1058.017820
 30
0.0
 10
300.700250
 20
1058.017820
 30
0.0
  0
SPLINE
  5
30e
100
AcDbEntity
  8
Ebene_1
 62
1
100
AcDbSpline
 70
8
 71
3
 72
8
 73
4
 74
0
 40
0
 40
0
 40
0
 40
0
 40
1
 40
1
 40
1
 40
1
 10
300.700250
 20
1058.017820
 30
0.0
 10
298.120410
 20
1058.017820
 30
0.0
 10
279.540320
 20
1053.976200
 30
0.0
 10
278.830270
 20
1053.266170
 30
0.0
  0
SPLINE
  5
30f
100
AcDbEntity
  8
Ebene_1
 62
1
100
AcDbSpline
 70
8
 71
3
 72
8
 73
4
 74
0
 40
0
 40
0
 40
0
 40
0
 40
1
 40
1
 40
1
 40
1
 10
278.830270
 20
1053.266170
 30
0.0
 10
276.853320
 20
1051.289220
 30
0.0
 10
281.254830
 20
1044.334930
 30
0.0
 10
284.483150
 20
1044.334930
 30
0.0
  0
SPLINE
  5
310
100
AcDbEntity
  8
Ebene_1
 62
1
100
AcDbSpline
 70
8
 71
3
 72
8
 73
4
 74
0
 40
0
 40
0
 40
0
 40
0
 40
1
 40
1
 40
1
 40
1
 10
284.483150
 20
1044.334930
 30
0.0
 10
305.502230
 20
1043.013960
 30
0.0
 10
304.078950
 20
1022.051080
 30
0.0
 10
307.496560
 20
1014.093180
 30
0.0
  0
SPLINE
  5
311
100
AcDbEntity
  8
Ebene_1
 62
1
100
AcDbSpline
 70
8
 71
3
 72
8
 73
4
 74
0
 40
0
 40
0
 40
0
 40
0
 40
1
 40
1
 40
1
 40
1
 10
307.496560
 20
1014.093180
 30
0.0
 10
318.374040
 20
1013.039240
 30
0.0
 10
326.026730
 20
1011.484190
 30
0.0
 10
332.263820
 20
1014.100180
 30
0.0
  0
SPLINE
  5
312
100
AcDbEntity
  8
Ebene_1
 62
1
100
AcDbSpline
 70
8
 71
3
 72
8
 73
4
 74
0
 40
0
 40
0
 40
0
 40
0
 40
1
 40
1
 40
1
 40
1
 10
332.263820
 20
1014.100180
 30
0.0
 10
334.130230
 20
1016.373630
 30
0.0
 10
333.029120
 20
1045.547730
 30
0.0
 10
352.626800
 20
1046.123850
 30
0.0
  0
SPLINE
  5
313
100
AcDbEntity
  8
Ebene_1
 62
1
100
AcDbSpline
 70
8
 71
3
 72
8
 73
4
 74
0
 40
0
 40
0
 40
0
 40
0
 40
1
 40
1
 40
1
 40
1
 10
352.626800
 20
1046.123850
 30
0.0
 10
357.166890
 20
1046.257320
 30
0.0
 10
359.023620
 20
1051.931890
 30
0.0
 10
358.599040
 20
1053.205590
 30
0.0
  0
SPLINE
  5
314
100
AcDbEntity
  8
Ebene_1
 62
1
100
AcDbSpline
 70
8
 71
3
 72
8
 73
4
 74
0
 40
0
 40
0
 40
0
 40
0
 40
1
 40
1
 40
1
 40
1
 10
358.599040
 20
1053.205590
 30
0.0
 10
358.174480
 20
1054.479270
 30
0.0
 10
353.759780
 20
1056.213550
 30
0.0
 10
348.788270
 20
1057.059620
 30
0.0
  0
SPLINE
  5
315
100
AcDbEntity
  8
Ebene_1
 62
1
100
AcDbSpline
 70
8
 71
3
 72
8
 73
4
 74
0
 40
0
 40
0
 40
0
 40
0
 40
1
 40
1
 40
1
 40
1
 10
348.788270
 20
1057.059620
 30
0.0
 10
343.816770
 20
1057.905680
 30
0.0
 10
332.975970
 20
1058.379700
 30
0.0
 10
331.618780
 20
1060.228420
 30
0.0
  0
SPLINE
  5
316
100
AcDbEntity
  8
Ebene_1
 62
1
100
AcDbSpline
 70
8
 71
3
 72
8
 73
4
 74
0
 40
0
 40
0
 40
0
 40
0
 40
1
 40
1
 40
1
 40
1
 10
331.618780
 20
1060.228420
 30
0.0
 10
330.801680
 20
1061.341430
 30
0.0
 10
331.485090
 20
1065.309480
 30
0.0
 10
330.689120
 20
1068.319910
 30
0.0
  0
SPLINE
  5
317
100
AcDbEntity
  8
Ebene_1
 62
1
100
AcDbSpline
 70
8
 71
3
 72
8
 73
4
 74
0
 40
0
 40
0
 40
0
 40
0
 40
1
 40
1
 40
1
 40
1
 10
330.689120
 20
1068.319910
 30
0.0
 10
335.075080
 20
1069.139060
 30
0.0
 10
338.335740
 20
1070.285880
 30
0.0
 10
339.124260
 20
1071.694900
 30
0.0
  0
SPLINE
  5
318
100
AcDbEntity
  8
Ebene_1
 62
1
100
AcDbSpline
 70
8
 71
3
 72
8
 73
4
 74
0
 40
0
 40
0
 40
0
 40
0
 40
1
 40
1
 40
1
 40
1
 10
339.124260
 20
1071.694900
 30
0.0
 10
340.141960
 20
1073.513410
 30
0.0
 10
342.998660
 20
1075.015480
 30
0.0
 10
345.472710
 20
1075.032680
 30
0.0
  0
SPLINE
  5
319
100
AcDbEntity
  8
Ebene_1
 62
1
100
AcDbSpline
 70
8
 71
3
 72
8
 73
4
 74
0
 40
0
 40
0
 40
0
 40
0
 40
1
 40
1
 40
1
 40
1
 10
345.472710
 20
1075.032680
 30
0.0
 10
347.946780
 20
1075.048980
 30
0.0
 10
351.292030
 20
1075.899960
 30
0.0
 10
352.906370
 20
1076.921460
 30
0.0
  0
SPLINE
  5
31a
100
AcDbEntity
  8
Ebene_1
 62
1
100
AcDbSpline
 70
8
 71
3
 72
8
 73
4
 74
0
 40
0
 40
0
 40
0
 40
0
 40
1
 40
1
 40
1
 40
1
 10
352.906370
 20
1076.921460
 30
0.0
 10
357.842860
 20
1080.045140
 30
0.0
 10
351.661180
 20
1085.223270
 30
0.0
 10
342.995860
 20
1085.223270
 30
0.0
  0
SPLINE
  5
31b
100
AcDbEntity
  8
Ebene_1
 62
1
100
AcDbSpline
 70
8
 71
3
 72
8
 73
4
 74
0
 40
0
 40
0
 40
0
 40
0
 40
1
 40
1
 40
1
 40
1
 10
342.995860
 20
1085.223270
 30
0.0
 10
336.161030
 20
1085.223270
 30
0.0
 10
328.923340
 20
1084.203490
 30
0.0
 10
329.573120
 20
1089.288390
 30
0.0
  0
SPLINE
  5
31c
100
AcDbEntity
  8
Ebene_1
 62
1
100
AcDbSpline
 70
8
 71
3
 72
8
 73
4
 74
0
 40
0
 40
0
 40
0
 40
0
 40
1
 40
1
 40
1
 40
1
 10
329.573120
 20
1089.288390
 30
0.0
 10
330.183340
 20
1094.063770
 30
0.0
 10
330.359440
 20
1092.488060
 30
0.0
 10
327.793690
 20
1097.665410
 30
0.0
  0
SPLINE
  5
31d
100
AcDbEntity
  8
Ebene_1
 62
1
100
AcDbSpline
 70
8
 71
3
 72
8
 73
4
 74
0
 40
0
 40
0
 40
0
 40
0
 40
1
 40
1
 40
1
 40
1
 10
327.793690
 20
1097.665410
 30
0.0
 10
325.695320
 20
1101.899660
 30
0.0
 10
332.152520
 20
1104.318330
 30
0.0
 10
334.085290
 20
1106.454020
 30
0.0
  0
SPLINE
  5
31e
100
AcDbEntity
  8
Ebene_1
 62
1
100
AcDbSpline
 70
8
 71
3
 72
8
 73
4
 74
0
 40
0
 40
0
 40
0
 40
0
 40
1
 40
1
 40
1
 40
1
 10
334.085290
 20
1106.454020
 30
0.0
 10
336.120460
 20
1108.702850
 30
0.0
 10
347.421180
 20
1109.769950
 30
0.0
 10
349.776840
 20
1109.787150
 30
0.0
  0
SPLINE
  5
31f
100
AcDbEntity
  8
Ebene_1
 62
1
100
AcDbSpline
 70
8
 71
3
 72
8
 73
4
 74
0
 40
0
 40
0
 40
0
 40
0
 40
1
 40
1
 40
1
 40
1
 10
349.776840
 20
1109.787150
 30
0.0
 10
357.129860
 20
1109.840950
 30
0.0
 10
359.915110
 20
1112.723210
 30
0.0
 10
357.312820
 20
1117.585640
 30
0.0
  0
SPLINE
  5
320
100
AcDbEntity
  8
Ebene_1
 62
1
100
AcDbSpline
 70
8
 71
3
 72
8
 73
4
 74
0
 40
0
 40
0
 40
0
 40
0
 40
1
 40
1
 40
1
 40
1
 10
357.312820
 20
1117.585640
 30
0.0
 10
354.593330
 20
1126.098720
 30
0.0
 10
330.736720
 20
1122.616150
 30
0.0
 10
330.915460
 20
1123.747020
 30
0.0
  0
SPLINE
  5
321
100
AcDbEntity
  8
Ebene_1
 62
1
100
AcDbSpline
 70
8
 71
3
 72
8
 73
4
 74
0
 40
0
 40
0
 40
0
 40
0
 40
1
 40
1
 40
1
 40
1
 10
330.915460
 20
1123.747020
 30
0.0
 10
331.540020
 20
1126.377870
 30
0.0
 10
331.232490
 20
1128.918730
 30
0.0
 10
331.232490
 20
1130.182160
 30
0.0
  0
SPLINE
  5
322
100
AcDbEntity
  8
Ebene_1
 62
1
100
AcDbSpline
 70
8
 71
3
 72
8
 73
4
 74
0
 40
0
 40
0
 40
0
 40
0
 40
1
 40
1
 40
1
 40
1
 10
331.232490
 20
1130.182160
 30
0.0
 10
331.232490
 20
1131.847350
 30
0.0
 10
339.212290
 20
1134.765410
 30
0.0
 10
342.304430
 20
1135.442950
 30
0.0
  0
SPLINE
  5
323
100
AcDbEntity
  8
Ebene_1
 62
1
100
AcDbSpline
 70
8
 71
3
 72
8
 73
4
 74
0
 40
0
 40
0
 40
0
 40
0
 40
1
 40
1
 40
1
 40
1
 10
342.304430
 20
1135.442950
 30
0.0
 10
345.396570
 20
1136.120500
 30
0.0
 10
349.144500
 20
1137.054920
 30
0.0
 10
350.633120
 20
1137.519820
 30
0.0
  0
SPLINE
  5
324
100
AcDbEntity
  8
Ebene_1
 62
1
100
AcDbSpline
 70
8
 71
3
 72
8
 73
4
 74
0
 40
0
 40
0
 40
0
 40
0
 40
1
 40
1
 40
1
 40
1
 10
350.633120
 20
1137.519820
 30
0.0
 10
354.628640
 20
1138.767610
 30
0.0
 10
352.661550
 20
1145.237870
 30
0.0
 10
347.610570
 20
1147.461850
 30
0.0
  0
SPLINE
  5
325
100
AcDbEntity
  8
Ebene_1
 62
1
100
AcDbSpline
 70
8
 71
3
 72
8
 73
4
 74
0
 40
0
 40
0
 40
0
 40
0
 40
1
 40
1
 40
1
 40
1
 10
347.610570
 20
1147.461850
 30
0.0
 10
345.201090
 20
1148.522740
 30
0.0
 10
341.708040
 20
1151.967460
 30
0.0
 10
339.847730
 20
1155.116680
 30
0.0
  0
SPLINE
  5
326
100
AcDbEntity
  8
Ebene_1
 62
1
100
AcDbSpline
 70
8
 71
3
 72
8
 73
4
 74
0
 40
0
 40
0
 40
0
 40
0
 40
1
 40
1
 40
1
 40
1
 10
339.847730
 20
1155.116680
 30
0.0
 10
336.639820
 20
1160.547290
 30
0.0
 10
330.393350
 20
1179.319490
 30
0.0
 10
320.015590
 20
1179.521290
 30
0.0
  0
SPLINE
  5
327
100
AcDbEntity
  8
Ebene_1
 62
1
100
AcDbSpline
 70
8
 71
3
 72
8
 73
4
 74
0
 40
0
 40
0
 40
0
 40
0
 40
1
 40
1
 40
1
 40
1
 10
320.015590
 20
1179.521290
 30
0.0
 10
319.583180
 20
1179.529290
 30
0.0
 10
319.139570
 20
1179.534790
 30
0.0
 10
318.683890
 20
1179.536790
 30
0.0
  0
LWPOLYLINE
  5
328
100
AcDbEntity
  8
Ebene_1
 62
1
100
AcDbPolyline
 90
1
 70
1
 10
351.582810
 20
1031.026290
 30
0.0
  0
SPLINE
  5
329
100
AcDbEntity
  8
Ebene_1
 62
1
100
AcDbSpline
 70
8
 71
3
 72
8
 73
4
 74
0
 40
0
 40
0
 40
0
 40
0
 40
1
 40
1
 40
1
 40
1
 10
248.757470
 20
1362.538880
 30
0.0
 10
254.538800
 20
1362.185100
 30
0.0
 10
272.463520
 20
1357.842090
 30
0.0
 10
283.223460
 20
1354.624120
 30
0.0
  0
SPLINE
  5
32a
100
AcDbEntity
  8
Ebene_1
 62
1
100
AcDbSpline
 70
8
 71
3
 72
8
 73
4
 74
0
 40
0
 40
0
 40
0
 40
0
 40
1
 40
1
 40
1
 40
1
 10
283.223460
 20
1354.624120
 30
0.0
 10
293.748140
 20
1354.853290
 30
0.0
 10
293.671400
 20
1348.665280
 30
0.0
 10
292.852540
 20
1339.575460
 30
0.0
  0
SPLINE
  5
32b
100
AcDbEntity
  8
Ebene_1
 62
1
100
AcDbSpline
 70
8
 71
3
 72
8
 73
4
 74
0
 40
0
 40
0
 40
0
 40
0
 40
1
 40
1
 40
1
 40
1
 10
292.852540
 20
1339.575460
 30
0.0
 10
292.317030
 20
1333.630980
 30
0.0
 10
293.073370
 20
1326.627980
 30
0.0
 10
292.397760
 20
1325.534820
 30
0.0
  0
SPLINE
  5
32c
100
AcDbEntity
  8
Ebene_1
 62
1
100
AcDbSpline
 70
8
 71
3
 72
8
 73
4
 74
0
 40
0
 40
0
 40
0
 40
0
 40
1
 40
1
 40
1
 40
1
 10
292.397760
 20
1325.534820
 30
0.0
 10
290.712110
 20
1322.807410
 30
0.0
 10
267.393570
 20
1328.238070
 30
0.0
 10
258.955230
 20
1334.674310
 30
0.0
  0
SPLINE
  5
32d
100
AcDbEntity
  8
Ebene_1
 62
1
100
AcDbSpline
 70
8
 71
3
 72
8
 73
4
 74
0
 40
0
 40
0
 40
0
 40
0
 40
1
 40
1
 40
1
 40
1
 10
258.955230
 20
1334.674310
 30
0.0
 10
252.092870
 20
1339.908480
 30
0.0
 10
239.340420
 20
1357.313030
 30
0.0
 10
240.998010
 20
1358.970600
 30
0.0
  0
SPLINE
  5
32e
100
AcDbEntity
  8
Ebene_1
 62
1
100
AcDbSpline
 70
8
 71
3
 72
8
 73
4
 74
0
 40
0
 40
0
 40
0
 40
0
 40
1
 40
1
 40
1
 40
1
 10
240.998010
 20
1358.970600
 30
0.0
 10
241.125210
 20
1359.097800
 30
0.0
 10
247.931570
 20
1362.589420
 30
0.0
 10
248.757470
 20
1362.538880
 30
0.0
  0
LWPOLYLINE
  5
32f
100
AcDbEntity
  8
Ebene_1
 62
1
100
AcDbPolyline
 90
2
 70
0
 10
318.683890
 20
1179.536790
 30
0.0
 10
318.683890
 20
1179.536390
 30
0.0
  0
SPLINE
  5
330
100
AcDbEntity
  8
Ebene_1
 62
1
100
AcDbSpline
 70
8
 71
3
 72
8
 73
4
 74
0
 40
0
 40
0
 40
0
 40
0
 40
1
 40
1
 40
1
 40
1
 10
376.908020
 20
1363.664550
 30
0.0
 10
371.126690
 20
1363.310770
 30
0.0
 10
348.797310
 20
1362.113950
 30
0.0
 10
338.037370
 20
1358.895980
 30
0.0
  0
SPLINE
  5
331
100
AcDbEntity
  8
Ebene_1
 62
1
100
AcDbSpline
 70
8
 71
3
 72
8
 73
4
 74
0
 40
0
 40
0
 40
0
 40
0
 40
1
 40
1
 40
1
 40
1
 10
338.037370
 20
1358.895980
 30
0.0
 10
330.276990
 20
1354.013250
 30
0.0
 10
331.618170
 20
1351.116500
 30
0.0
 10
332.498330
 20
1342.588840
 30
0.0
  0
SPLINE
  5
332
100
AcDbEntity
  8
Ebene_1
 62
1
100
AcDbSpline
 70
8
 71
3
 72
8
 73
4
 74
0
 40
0
 40
0
 40
0
 40
0
 40
1
 40
1
 40
1
 40
1
 10
332.498330
 20
1342.588840
 30
0.0
 10
333.111090
 20
1336.651830
 30
0.0
 10
334.165210
 20
1330.899830
 30
0.0
 10
334.840820
 20
1329.806670
 30
0.0
  0
SPLINE
  5
333
100
AcDbEntity
  8
Ebene_1
 62
1
100
AcDbSpline
 70
8
 71
3
 72
8
 73
4
 74
0
 40
0
 40
0
 40
0
 40
0
 40
1
 40
1
 40
1
 40
1
 10
334.840820
 20
1329.806670
 30
0.0
 10
336.526470
 20
1327.079260
 30
0.0
 10
351.350310
 20
1332.509930
 30
0.0
 10
359.788650
 20
1338.946170
 30
0.0
  0
SPLINE
  5
334
100
AcDbEntity
  8
Ebene_1
 62
1
100
AcDbSpline
 70
8
 71
3
 72
8
 73
4
 74
0
 40
0
 40
0
 40
0
 40
0
 40
1
 40
1
 40
1
 40
1
 10
359.788650
 20
1338.946170
 30
0.0
 10
366.651010
 20
1344.180340
 30
0.0
 10
380.032700
 20
1361.899500
 30
0.0
 10
378.375110
 20
1363.557070
 30
0.0
  0
SPLINE
  5
335
100
AcDbEntity
  8
Ebene_1
 62
1
100
AcDbSpline
 70
8
 71
3
 72
8
 73
4
 74
0
 40
0
 40
0
 40
0
 40
0
 40
1
 40
1
 40
1
 40
1
 10
378.375110
 20
1363.557070
 30
0.0
 10
378.247910
 20
1363.684270
 30
0.0
 10
377.733920
 20
1363.715090
 30
0.0
 10
376.908020
 20
1363.664550
 30
0.0
  0
LWPOLYLINE
  5
336
100
AcDbEntity
  8
Ebene_1
 62
1
100
AcDbPolyline
 90
1
 70
1
 10
248.757470
 20
1362.538880
 30
0.0
  0
SPLINE
  5
337
100
AcDbEntity
  8
Ebene_1
 62
1
100
AcDbSpline
 70
8
 71
3
 72
8
 73
4
 74
0
 40
0
 40
0
 40
0
 40
0
 40
1
 40
1
 40
1
 40
1
 10
310.444950
 20
1436.886650
 30
0.0
 10
315.721730
 20
1437.353610
 30
0.0
 10
333.308880
 20
1434.043050
 30
0.0
 10
329.665720
 20
1427.182590
 30
0.0
  0
SPLINE
  5
338
100
AcDbEntity
  8
Ebene_1
 62
1
100
AcDbSpline
 70
8
 71
3
 72
8
 73
4
 74
0
 40
0
 40
0
 40
0
 40
0
 40
1
 40
1
 40
1
 40
1
 10
329.665720
 20
1427.182590
 30
0.0
 10
328.458610
 20
1425.025600
 30
0.0
 10
318.388390
 20
1421.328810
 30
0.0
 10
319.887420
 20
1418.862930
 30
0.0
  0
SPLINE
  5
339
100
AcDbEntity
  8
Ebene_1
 62
1
100
AcDbSpline
 70
8
 71
3
 72
8
 73
4
 74
0
 40
0
 40
0
 40
0
 40
0
 40
1
 40
1
 40
1
 40
1
 10
319.887420
 20
1418.862930
 30
0.0
 10
321.816980
 20
1415.688820
 30
0.0
 10
330.538880
 20
1414.801940
 30
0.0
 10
326.718340
 20
1411.669060
 30
0.0
  0
SPLINE
  5
33a
100
AcDbEntity
  8
Ebene_1
 62
1
100
AcDbSpline
 70
8
 71
3
 72
8
 73
4
 74
0
 40
0
 40
0
 40
0
 40
0
 40
1
 40
1
 40
1
 40
1
 10
326.718340
 20
1411.669060
 30
0.0
 10
323.521590
 20
1408.740710
 30
0.0
 10
319.444500
 20
1407.264180
 30
0.0
 10
322.649380
 20
1403.810630
 30
0.0
  0
SPLINE
  5
33b
100
AcDbEntity
  8
Ebene_1
 62
1
100
AcDbSpline
 70
8
 71
3
 72
8
 73
4
 74
0
 40
0
 40
0
 40
0
 40
0
 40
1
 40
1
 40
1
 40
1
 10
322.649380
 20
1403.810630
 30
0.0
 10
324.539830
 20
1401.804250
 30
0.0
 10
326.332950
 20
1401.696410
 30
0.0
 10
330.003460
 20
1403.368790
 30
0.0
  0
SPLINE
  5
33c
100
AcDbEntity
  8
Ebene_1
 62
1
100
AcDbSpline
 70
8
 71
3
 72
8
 73
4
 74
0
 40
0
 40
0
 40
0
 40
0
 40
1
 40
1
 40
1
 40
1
 10
330.003460
 20
1403.368790
 30
0.0
 10
338.245540
 20
1407.124140
 30
0.0
 10
356.604250
 20
1408.522730
 30
0.0
 10
365.657610
 20
1406.084910
 30
0.0
  0
SPLINE
  5
33d
100
AcDbEntity
  8
Ebene_1
 62
1
100
AcDbSpline
 70
8
 71
3
 72
8
 73
4
 74
0
 40
0
 40
0
 40
0
 40
0
 40
1
 40
1
 40
1
 40
1
 10
365.657610
 20
1406.084910
 30
0.0
 10
375.540210
 20
1403.423810
 30
0.0
 10
383.767360
 20
1398.838530
 30
0.0
 10
390.116060
 20
1388.807180
 30
0.0
  0
SPLINE
  5
33e
100
AcDbEntity
  8
Ebene_1
 62
1
100
AcDbSpline
 70
8
 71
3
 72
8
 73
4
 74
0
 40
0
 40
0
 40
0
 40
0
 40
1
 40
1
 40
1
 40
1
 10
390.116060
 20
1388.807180
 30
0.0
 10
394.764190
 20
1378.143960
 30
0.0
 10
405.145130
 20
1378.999940
 30
0.0
 10
415.503150
 20
1379.209030
 30
0.0
  0
SPLINE
  5
33f
100
AcDbEntity
  8
Ebene_1
 62
1
100
AcDbSpline
 70
8
 71
3
 72
8
 73
4
 74
0
 40
0
 40
0
 40
0
 40
0
 40
1
 40
1
 40
1
 40
1
 10
415.503150
 20
1379.209030
 30
0.0
 10
435.297860
 20
1379.608300
 30
0.0
 10
486.894270
 20
1382.643780
 30
0.0
 10
489.516720
 20
1367.868420
 30
0.0
  0
SPLINE
  5
340
100
AcDbEntity
  8
Ebene_1
 62
1
100
AcDbSpline
 70
8
 71
3
 72
8
 73
4
 74
0
 40
0
 40
0
 40
0
 40
0
 40
1
 40
1
 40
1
 40
1
 10
489.516720
 20
1367.868420
 30
0.0
 10
490.596430
 20
1361.785170
 30
0.0
 10
484.839380
 20
1334.715310
 30
0.0
 10
478.936200
 20
1333.935620
 30
0.0
  0
SPLINE
  5
341
100
AcDbEntity
  8
Ebene_1
 62
1
100
AcDbSpline
 70
8
 71
3
 72
8
 73
4
 74
0
 40
0
 40
0
 40
0
 40
0
 40
1
 40
1
 40
1
 40
1
 10
478.936200
 20
1333.935620
 30
0.0
 10
456.649590
 20
1330.078390
 30
0.0
 10
398.715170
 20
1371.356480
 30
0.0
 10
389.846260
 20
1347.448630
 30
0.0
  0
SPLINE
  5
342
100
AcDbEntity
  8
Ebene_1
 62
1
100
AcDbSpline
 70
8
 71
3
 72
8
 73
4
 74
0
 40
0
 40
0
 40
0
 40
0
 40
1
 40
1
 40
1
 40
1
 10
389.846260
 20
1347.448630
 30
0.0
 10
385.171770
 20
1334.824110
 30
0.0
 10
373.168550
 20
1324.711340
 30
0.0
 10
355.633930
 20
1316.345680
 30
0.0
  0
SPLINE
  5
343
100
AcDbEntity
  8
Ebene_1
 62
1
100
AcDbSpline
 70
8
 71
3
 72
8
 73
4
 74
0
 40
0
 40
0
 40
0
 40
0
 40
1
 40
1
 40
1
 40
1
 10
355.633930
 20
1316.345680
 30
0.0
 10
348.164490
 20
1312.782040
 30
0.0
 10
340.574760
 20
1309.866490
 30
0.0
 10
338.767780
 20
1309.866490
 30
0.0
  0
SPLINE
  5
344
100
AcDbEntity
  8
Ebene_1
 62
1
100
AcDbSpline
 70
8
 71
3
 72
8
 73
4
 74
0
 40
0
 40
0
 40
0
 40
0
 40
1
 40
1
 40
1
 40
1
 10
338.767780
 20
1309.866490
 30
0.0
 10
336.480270
 20
1309.866490
 30
0.0
 10
335.482190
 20
1308.003340
 30
0.0
 10
335.482190
 20
1303.733020
 30
0.0
  0
SPLINE
  5
345
100
AcDbEntity
  8
Ebene_1
 62
1
100
AcDbSpline
 70
8
 71
3
 72
8
 73
4
 74
0
 40
0
 40
0
 40
0
 40
0
 40
1
 40
1
 40
1
 40
1
 10
335.482190
 20
1303.733020
 30
0.0
 10
335.482190
 20
1298.346280
 30
0.0
 10
336.194950
 20
1297.600060
 30
0.0
 10
341.336610
 20
1297.600060
 30
0.0
  0
SPLINE
  5
346
100
AcDbEntity
  8
Ebene_1
 62
1
100
AcDbSpline
 70
8
 71
3
 72
8
 73
4
 74
0
 40
0
 40
0
 40
0
 40
0
 40
1
 40
1
 40
1
 40
1
 10
341.336610
 20
1297.600060
 30
0.0
 10
353.008530
 20
1297.600060
 30
0.0
 10
369.245360
 20
1301.862380
 30
0.0
 10
376.362900
 20
1306.794840
 30
0.0
  0
SPLINE
  5
347
100
AcDbEntity
  8
Ebene_1
 62
1
100
AcDbSpline
 70
8
 71
3
 72
8
 73
4
 74
0
 40
0
 40
0
 40
0
 40
0
 40
1
 40
1
 40
1
 40
1
 10
376.362900
 20
1306.794840
 30
0.0
 10
385.469920
 20
1313.106000
 30
0.0
 10
396.205790
 20
1330.614200
 30
0.0
 10
398.018430
 20
1342.111040
 30
0.0
  0
SPLINE
  5
348
100
AcDbEntity
  8
Ebene_1
 62
1
100
AcDbSpline
 70
8
 71
3
 72
8
 73
4
 74
0
 40
0
 40
0
 40
0
 40
0
 40
1
 40
1
 40
1
 40
1
 10
398.018430
 20
1342.111040
 30
0.0
 10
398.775810
 20
1346.914720
 30
0.0
 10
400.186850
 20
1351.333800
 30
0.0
 10
401.154150
 20
1351.931620
 30
0.0
  0
SPLINE
  5
349
100
AcDbEntity
  8
Ebene_1
 62
1
100
AcDbSpline
 70
8
 71
3
 72
8
 73
4
 74
0
 40
0
 40
0
 40
0
 40
0
 40
1
 40
1
 40
1
 40
1
 10
401.154150
 20
1351.931620
 30
0.0
 10
402.121460
 20
1352.529440
 30
0.0
 10
405.313360
 20
1350.618250
 30
0.0
 10
408.247260
 20
1347.684340
 30
0.0
  0
SPLINE
  5
34a
100
AcDbEntity
  8
Ebene_1
 62
1
100
AcDbSpline
 70
8
 71
3
 72
8
 73
4
 74
0
 40
0
 40
0
 40
0
 40
0
 40
1
 40
1
 40
1
 40
1
 10
408.247260
 20
1347.684340
 30
0.0
 10
412.653960
 20
1343.277630
 30
0.0
 10
413.356240
 20
1341.149640
 30
0.0
 10
412.286290
 20
1335.446330
 30
0.0
  0
SPLINE
  5
34b
100
AcDbEntity
  8
Ebene_1
 62
1
100
AcDbSpline
 70
8
 71
3
 72
8
 73
4
 74
0
 40
0
 40
0
 40
0
 40
0
 40
1
 40
1
 40
1
 40
1
 10
412.286290
 20
1335.446330
 30
0.0
 10
409.575750
 20
1320.997920
 30
0.0
 10
396.273040
 20
1302.691270
 30
0.0
 10
381.328490
 20
1292.844790
 30
0.0
  0
SPLINE
  5
34c
100
AcDbEntity
  8
Ebene_1
 62
1
100
AcDbSpline
 70
8
 71
3
 72
8
 73
4
 74
0
 40
0
 40
0
 40
0
 40
0
 40
1
 40
1
 40
1
 40
1
 10
381.328490
 20
1292.844790
 30
0.0
 10
372.681680
 20
1287.147710
 30
0.0
 10
352.918360
 20
1281.244980
 30
0.0
 10
342.491580
 20
1281.244980
 30
0.0
  0
SPLINE
  5
34d
100
AcDbEntity
  8
Ebene_1
 62
1
100
AcDbSpline
 70
8
 71
3
 72
8
 73
4
 74
0
 40
0
 40
0
 40
0
 40
0
 40
1
 40
1
 40
1
 40
1
 10
342.491580
 20
1281.244980
 30
0.0
 10
336.722150
 20
1281.244980
 30
0.0
 10
336.151300
 20
1280.710810
 30
0.0
 10
337.026280
 20
1276.133670
 30
0.0
  0
SPLINE
  5
34e
100
AcDbEntity
  8
Ebene_1
 62
1
100
AcDbSpline
 70
8
 71
3
 72
8
 73
4
 74
0
 40
0
 40
0
 40
0
 40
0
 40
1
 40
1
 40
1
 40
1
 10
337.026280
 20
1276.133670
 30
0.0
 10
338.218370
 20
1269.897680
 30
0.0
 10
344.251750
 20
1269.483250
 30
0.0
 10
366.305630
 20
1274.122420
 30
0.0
  0
SPLINE
  5
34f
100
AcDbEntity
  8
Ebene_1
 62
1
100
AcDbSpline
 70
8
 71
3
 72
8
 73
4
 74
0
 40
0
 40
0
 40
0
 40
0
 40
1
 40
1
 40
1
 40
1
 10
366.305630
 20
1274.122420
 30
0.0
 10
401.395370
 20
1281.503770
 30
0.0
 10
420.014070
 20
1298.225110
 30
0.0
 10
416.596100
 20
1319.287620
 30
0.0
  0
SPLINE
  5
350
100
AcDbEntity
  8
Ebene_1
 62
1
100
AcDbSpline
 70
8
 71
3
 72
8
 73
4
 74
0
 40
0
 40
0
 40
0
 40
0
 40
1
 40
1
 40
1
 40
1
 10
416.596100
 20
1319.287620
 30
0.0
 10
415.633900
 20
1325.216830
 30
0.0
 10
416.057770
 20
1326.221570
 30
0.0
 10
419.523570
 20
1326.221570
 30
0.0
  0
SPLINE
  5
351
100
AcDbEntity
  8
Ebene_1
 62
1
100
AcDbSpline
 70
8
 71
3
 72
8
 73
4
 74
0
 40
0
 40
0
 40
0
 40
0
 40
1
 40
1
 40
1
 40
1
 10
419.523570
 20
1326.221570
 30
0.0
 10
425.418910
 20
1326.221570
 30
0.0
 10
433.132460
 20
1317.575010
 30
0.0
 10
434.702490
 20
1309.206070
 30
0.0
  0
SPLINE
  5
352
100
AcDbEntity
  8
Ebene_1
 62
1
100
AcDbSpline
 70
8
 71
3
 72
8
 73
4
 74
0
 40
0
 40
0
 40
0
 40
0
 40
1
 40
1
 40
1
 40
1
 10
434.702490
 20
1309.206070
 30
0.0
 10
440.012560
 20
1280.901040
 30
0.0
 10
401.066710
 20
1253.701980
 30
0.0
 10
353.370500
 20
1252.405400
 30
0.0
  0
SPLINE
  5
353
100
AcDbEntity
  8
Ebene_1
 62
1
100
AcDbSpline
 70
8
 71
3
 72
8
 73
4
 74
0
 40
0
 40
0
 40
0
 40
0
 40
1
 40
1
 40
1
 40
1
 10
353.370500
 20
1252.405400
 30
0.0
 10
345.780700
 20
1252.199080
 30
0.0
 10
339.570830
 20
1251.262350
 30
0.0
 10
339.570830
 20
1250.323870
 30
0.0
  0
SPLINE
  5
354
100
AcDbEntity
  8
Ebene_1
 62
1
100
AcDbSpline
 70
8
 71
3
 72
8
 73
4
 74
0
 40
0
 40
0
 40
0
 40
0
 40
1
 40
1
 40
1
 40
1
 10
339.570830
 20
1250.323870
 30
0.0
 10
339.570830
 20
1245.341620
 30
0.0
 10
373.045660
 20
1234.206120
 30
0.0
 10
387.909480
 20
1234.243720
 30
0.0
  0
SPLINE
  5
355
100
AcDbEntity
  8
Ebene_1
 62
1
100
AcDbSpline
 70
8
 71
3
 72
8
 73
4
 74
0
 40
0
 40
0
 40
0
 40
0
 40
1
 40
1
 40
1
 40
1
 10
387.909480
 20
1234.243720
 30
0.0
 10
398.074920
 20
1234.269520
 30
0.0
 10
414.450110
 20
1242.063180
 30
0.0
 10
422.778670
 20
1250.839600
 30
0.0
  0
SPLINE
  5
356
100
AcDbEntity
  8
Ebene_1
 62
1
100
AcDbSpline
 70
8
 71
3
 72
8
 73
4
 74
0
 40
0
 40
0
 40
0
 40
0
 40
1
 40
1
 40
1
 40
1
 10
422.778670
 20
1250.839600
 30
0.0
 10
426.377210
 20
1254.631640
 30
0.0
 10
432.048450
 20
1263.714180
 30
0.0
 10
435.381520
 20
1271.022870
 30
0.0
  0
LWPOLYLINE
  5
357
100
AcDbEntity
  8
Ebene_1
 62
1
100
AcDbPolyline
 90
1
 70
1
 10
376.908020
 20
1363.664550
 30
0.0
  0
SPLINE
  5
358
100
AcDbEntity
  8
Ebene_1
 62
1
100
AcDbSpline
 70
8
 71
3
 72
8
 73
4
 74
0
 40
0
 40
0
 40
0
 40
0
 40
1
 40
1
 40
1
 40
1
 10
443.823380
 20
1278.178500
 30
0.0
 10
445.137550
 20
1274.793830
 30
0.0
 10
445.646360
 20
1268.505520
 30
0.0
 10
444.958710
 20
1264.146800
 30
0.0
  0
SPLINE
  5
359
100
AcDbEntity
  8
Ebene_1
 62
1
100
AcDbSpline
 70
8
 71
3
 72
8
 73
4
 74
0
 40
0
 40
0
 40
0
 40
0
 40
1
 40
1
 40
1
 40
1
 10
444.958710
 20
1264.146800
 30
0.0
 10
441.157200
 20
1240.050150
 30
0.0
 10
404.787740
 20
1214.915630
 30
0.0
 10
379.590610
 20
1218.971260
 30
0.0
  0
SPLINE
  5
35a
100
AcDbEntity
  8
Ebene_1
 62
1
100
AcDbSpline
 70
8
 71
3
 72
8
 73
4
 74
0
 40
0
 40
0
 40
0
 40
0
 40
1
 40
1
 40
1
 40
1
 10
379.590610
 20
1218.971260
 30
0.0
 10
375.008270
 20
1219.708820
 30
0.0
 10
363.208080
 20
1223.902120
 30
0.0
 10
353.367920
 20
1228.290080
 30
0.0
  0
SPLINE
  5
35b
100
AcDbEntity
  8
Ebene_1
 62
1
100
AcDbSpline
 70
8
 71
3
 72
8
 73
4
 74
0
 40
0
 40
0
 40
0
 40
0
 40
1
 40
1
 40
1
 40
1
 10
353.367920
 20
1228.290080
 30
0.0
 10
343.527750
 20
1232.678030
 30
0.0
 10
335.018120
 20
1236.268400
 30
0.0
 10
334.457450
 20
1236.268400
 30
0.0
  0
SPLINE
  5
35c
100
AcDbEntity
  8
Ebene_1
 62
1
100
AcDbSpline
 70
8
 71
3
 72
8
 73
4
 74
0
 40
0
 40
0
 40
0
 40
0
 40
1
 40
1
 40
1
 40
1
 10
334.457450
 20
1236.268400
 30
0.0
 10
331.512050
 20
1236.268400
 30
0.0
 10
334.137930
 20
1230.256480
 30
0.0
 10
339.059750
 20
1225.732090
 30
0.0
  0
SPLINE
  5
35d
100
AcDbEntity
  8
Ebene_1
 62
1
100
AcDbSpline
 70
8
 71
3
 72
8
 73
4
 74
0
 40
0
 40
0
 40
0
 40
0
 40
1
 40
1
 40
1
 40
1
 10
339.059750
 20
1225.732090
 30
0.0
 10
364.509920
 20
1202.337080
 30
0.0
 10
411.417970
 20
1198.075830
 30
0.0
 10
432.590990
 20
1217.235450
 30
0.0
  0
SPLINE
  5
35e
100
AcDbEntity
  8
Ebene_1
 62
1
100
AcDbSpline
 70
8
 71
3
 72
8
 73
4
 74
0
 40
0
 40
0
 40
0
 40
0
 40
1
 40
1
 40
1
 40
1
 10
432.590990
 20
1217.235450
 30
0.0
 10
441.244870
 20
1225.066430
 30
0.0
 10
447.902230
 20
1234.729730
 30
0.0
 10
449.993030
 20
1242.494380
 30
0.0
  0
SPLINE
  5
35f
100
AcDbEntity
  8
Ebene_1
 62
1
100
AcDbSpline
 70
8
 71
3
 72
8
 73
4
 74
0
 40
0
 40
0
 40
0
 40
0
 40
1
 40
1
 40
1
 40
1
 10
449.993030
 20
1242.494380
 30
0.0
 10
452.390300
 20
1251.397100
 30
0.0
 10
454.847380
 20
1252.652730
 30
0.0
 10
458.073670
 20
1246.624360
 30
0.0
  0
SPLINE
  5
360
100
AcDbEntity
  8
Ebene_1
 62
1
100
AcDbSpline
 70
8
 71
3
 72
8
 73
4
 74
0
 40
0
 40
0
 40
0
 40
0
 40
1
 40
1
 40
1
 40
1
 10
458.073670
 20
1246.624360
 30
0.0
 10
462.111800
 20
1239.079040
 30
0.0
 10
460.468030
 20
1228.962790
 30
0.0
 10
453.545790
 20
1218.758360
 30
0.0
  0
SPLINE
  5
361
100
AcDbEntity
  8
Ebene_1
 62
1
100
AcDbSpline
 70
8
 71
3
 72
8
 73
4
 74
0
 40
0
 40
0
 40
0
 40
0
 40
1
 40
1
 40
1
 40
1
 10
453.545790
 20
1218.758360
 30
0.0
 10
442.056520
 20
1201.821440
 30
0.0
 10
434.377420
 20
1197.198600
 30
0.0
 10
410.708090
 20
1192.972330
 30
0.0
  0
SPLINE
  5
362
100
AcDbEntity
  8
Ebene_1
 62
1
100
AcDbSpline
 70
8
 71
3
 72
8
 73
4
 74
0
 40
0
 40
0
 40
0
 40
0
 40
1
 40
1
 40
1
 40
1
 10
410.708090
 20
1192.972330
 30
0.0
 10
399.245630
 20
1190.925660
 30
0.0
 10
388.952130
 20
1188.336260
 30
0.0
 10
387.834030
 20
1187.218160
 30
0.0
  0
SPLINE
  5
363
100
AcDbEntity
  8
Ebene_1
 62
1
100
AcDbSpline
 70
8
 71
3
 72
8
 73
4
 74
0
 40
0
 40
0
 40
0
 40
0
 40
1
 40
1
 40
1
 40
1
 10
387.834030
 20
1187.218160
 30
0.0
 10
382.966280
 20
1182.350410
 30
0.0
 10
404.869070
 20
1166.758950
 30
0.0
 10
416.574920
 20
1166.758950
 30
0.0
  0
SPLINE
  5
364
100
AcDbEntity
  8
Ebene_1
 62
1
100
AcDbSpline
 70
8
 71
3
 72
8
 73
4
 74
0
 40
0
 40
0
 40
0
 40
0
 40
1
 40
1
 40
1
 40
1
 10
416.574920
 20
1166.758950
 30
0.0
 10
429.098910
 20
1166.758950
 30
0.0
 10
452.356240
 20
1184.412090
 30
0.0
 10
460.437350
 20
1200.052520
 30
0.0
  0
SPLINE
  5
365
100
AcDbEntity
  8
Ebene_1
 62
1
100
AcDbSpline
 70
8
 71
3
 72
8
 73
4
 74
0
 40
0
 40
0
 40
0
 40
0
 40
1
 40
1
 40
1
 40
1
 10
460.437350
 20
1200.052520
 30
0.0
 10
464.735580
 20
1208.371340
 30
0.0
 10
468.367620
 20
1208.487150
 30
0.0
 10
468.367620
 20
1200.305220
 30
0.0
  0
SPLINE
  5
366
100
AcDbEntity
  8
Ebene_1
 62
1
100
AcDbSpline
 70
8
 71
3
 72
8
 73
4
 74
0
 40
0
 40
0
 40
0
 40
0
 40
1
 40
1
 40
1
 40
1
 10
468.367620
 20
1200.305220
 30
0.0
 10
468.367620
 20
1192.193100
 30
0.0
 10
463.184200
 20
1182.009010
 30
0.0
 10
453.964880
 20
1172.007210
 30
0.0
  0
SPLINE
  5
367
100
AcDbEntity
  8
Ebene_1
 62
1
100
AcDbSpline
 70
8
 71
3
 72
8
 73
4
 74
0
 40
0
 40
0
 40
0
 40
0
 40
1
 40
1
 40
1
 40
1
 10
453.964880
 20
1172.007210
 30
0.0
 10
442.788130
 20
1159.881890
 30
0.0
 10
433.123520
 20
1154.063800
 30
0.0
 10
419.709090
 20
1151.385210
 30
0.0
  0
LWPOLYLINE
  5
368
100
AcDbEntity
  8
Ebene_1
 62
1
100
AcDbPolyline
 90
3
 70
0
 10
435.381520
 20
1271.022870
 30
0.0
 10
441.441610
 20
1284.311460
 30
0.0
 10
443.823380
 20
1278.178500
 30
0.0
  0
SPLINE
  5
369
100
AcDbEntity
  8
Ebene_1
 62
1
100
AcDbSpline
 70
8
 71
3
 72
8
 73
4
 74
0
 40
0
 40
0
 40
0
 40
0
 40
1
 40
1
 40
1
 40
1
 10
415.594610
 20
1139.128590
 30
0.0
 10
419.320450
 20
1133.583290
 30
0.0
 10
424.898620
 20
1127.641630
 30
0.0
 10
427.990760
 20
1125.925260
 30
0.0
  0
SPLINE
  5
36a
100
AcDbEntity
  8
Ebene_1
 62
1
100
AcDbSpline
 70
8
 71
3
 72
8
 73
4
 74
0
 40
0
 40
0
 40
0
 40
0
 40
1
 40
1
 40
1
 40
1
 10
427.990760
 20
1125.925260
 30
0.0
 10
433.033760
 20
1123.125240
 30
0.0
 10
434.192040
 20
1123.126690
 30
0.0
 10
439.235030
 20
1125.937660
 30
0.0
  0
SPLINE
  5
36b
100
AcDbEntity
  8
Ebene_1
 62
1
100
AcDbSpline
 70
8
 71
3
 72
8
 73
4
 74
0
 40
0
 40
0
 40
0
 40
0
 40
1
 40
1
 40
1
 40
1
 10
439.235030
 20
1125.937660
 30
0.0
 10
442.327180
 20
1127.661250
 30
0.0
 10
447.776730
 20
1133.942120
 30
0.0
 10
451.344890
 20
1139.895460
 30
0.0
  0
SPLINE
  5
36c
100
AcDbEntity
  8
Ebene_1
 62
1
100
AcDbSpline
 70
8
 71
3
 72
8
 73
4
 74
0
 40
0
 40
0
 40
0
 40
0
 40
1
 40
1
 40
1
 40
1
 10
451.344890
 20
1139.895460
 30
0.0
 10
457.298930
 20
1149.829600
 30
0.0
 10
458.013150
 20
1150.381780
 30
0.0
 10
460.033250
 20
1146.607200
 30
0.0
  0
SPLINE
  5
36d
100
AcDbEntity
  8
Ebene_1
 62
1
100
AcDbSpline
 70
8
 71
3
 72
8
 73
4
 74
0
 40
0
 40
0
 40
0
 40
0
 40
1
 40
1
 40
1
 40
1
 10
460.033250
 20
1146.607200
 30
0.0
 10
468.288270
 20
1131.182540
 30
0.0
 10
449.938180
 20
1110.937260
 30
0.0
 10
427.664160
 20
1110.895160
 30
0.0
  0
LWPOLYLINE
  5
36e
100
AcDbEntity
  8
Ebene_1
 62
1
100
AcDbPolyline
 90
3
 70
0
 10
419.709090
 20
1151.385210
 30
0.0
 10
408.820350
 20
1149.210660
 30
0.0
 10
415.594610
 20
1139.128590
 30
0.0
  0
SPLINE
  5
36f
100
AcDbEntity
  8
Ebene_1
 62
1
100
AcDbSpline
 70
8
 71
3
 72
8
 73
4
 74
0
 40
0
 40
0
 40
0
 40
0
 40
1
 40
1
 40
1
 40
1
 10
424.597680
 20
1106.118740
 30
0.0
 10
432.260460
 20
1099.987270
 30
0.0
 10
438.735740
 20
1100.082600
 30
0.0
 10
447.083130
 20
1106.449470
 30
0.0
  0
SPLINE
  5
370
100
AcDbEntity
  8
Ebene_1
 62
1
100
AcDbSpline
 70
8
 71
3
 72
8
 73
4
 74
0
 40
0
 40
0
 40
0
 40
0
 40
1
 40
1
 40
1
 40
1
 10
447.083130
 20
1106.449470
 30
0.0
 10
455.670810
 20
1112.999650
 30
0.0
 10
460.190340
 20
1113.061960
 30
0.0
 10
460.190340
 20
1106.630850
 30
0.0
  0
SPLINE
  5
371
100
AcDbEntity
  8
Ebene_1
 62
1
100
AcDbSpline
 70
8
 71
3
 72
8
 73
4
 74
0
 40
0
 40
0
 40
0
 40
0
 40
1
 40
1
 40
1
 40
1
 10
460.190340
 20
1106.630850
 30
0.0
 10
460.190340
 20
1100.148560
 30
0.0
 10
449.968970
 20
1091.647790
 30
0.0
 10
438.480560
 20
1088.575110
 30
0.0
  0
SPLINE
  5
372
100
AcDbEntity
  8
Ebene_1
 62
1
100
AcDbSpline
 70
8
 71
3
 72
8
 73
4
 74
0
 40
0
 40
0
 40
0
 40
0
 40
1
 40
1
 40
1
 40
1
 10
438.480560
 20
1088.575110
 30
0.0
 10
428.386390
 20
1085.875320
 30
0.0
 10
426.936320
 20
1081.823240
 30
0.0
 10
433.833290
 20
1075.589340
 30
0.0
  0
SPLINE
  5
373
100
AcDbEntity
  8
Ebene_1
 62
1
100
AcDbSpline
 70
8
 71
3
 72
8
 73
4
 74
0
 40
0
 40
0
 40
0
 40
0
 40
1
 40
1
 40
1
 40
1
 10
433.833290
 20
1075.589340
 30
0.0
 10
438.104600
 20
1071.728650
 30
0.0
 10
438.189920
 20
1071.752530
 30
0.0
 10
443.692640
 20
1078.339040
 30
0.0
  0
SPLINE
  5
374
100
AcDbEntity
  8
Ebene_1
 62
1
100
AcDbSpline
 70
8
 71
3
 72
8
 73
4
 74
0
 40
0
 40
0
 40
0
 40
0
 40
1
 40
1
 40
1
 40
1
 10
443.692640
 20
1078.339040
 30
0.0
 10
454.145500
 20
1090.850670
 30
0.0
 10
458.237060
 20
1083.646020
 30
0.0
 10
448.755380
 20
1069.424340
 30
0.0
  0
SPLINE
  5
375
100
AcDbEntity
  8
Ebene_1
 62
1
100
AcDbSpline
 70
8
 71
3
 72
8
 73
4
 74
0
 40
0
 40
0
 40
0
 40
0
 40
1
 40
1
 40
1
 40
1
 10
448.755380
 20
1069.424340
 30
0.0
 10
439.393110
 20
1055.381760
 30
0.0
 10
430.820610
 20
1051.291330
 30
0.0
 10
421.362220
 20
1056.353300
 30
0.0
  0
SPLINE
  5
376
100
AcDbEntity
  8
Ebene_1
 62
1
100
AcDbSpline
 70
8
 71
3
 72
8
 73
4
 74
0
 40
0
 40
0
 40
0
 40
0
 40
1
 40
1
 40
1
 40
1
 10
421.362220
 20
1056.353300
 30
0.0
 10
416.296040
 20
1059.064630
 30
0.0
 10
410.469160
 20
1075.201190
 30
0.0
 10
405.109470
 20
1101.361930
 30
0.0
  0
SPLINE
  5
377
100
AcDbEntity
  8
Ebene_1
 62
1
100
AcDbSpline
 70
8
 71
3
 72
8
 73
4
 74
0
 40
0
 40
0
 40
0
 40
0
 40
1
 40
1
 40
1
 40
1
 10
405.109470
 20
1101.361930
 30
0.0
 10
401.706680
 20
1117.970900
 30
0.0
 10
398.087380
 20
1128.036840
 30
0.0
 10
389.054110
 20
1146.017080
 30
0.0
  0
SPLINE
  5
378
100
AcDbEntity
  8
Ebene_1
 62
1
100
AcDbSpline
 70
8
 71
3
 72
8
 73
4
 74
0
 40
0
 40
0
 40
0
 40
0
 40
1
 40
1
 40
1
 40
1
 10
389.054110
 20
1146.017080
 30
0.0
 10
378.837890
 20
1166.351960
 30
0.0
 10
375.536550
 20
1170.914420
 30
0.0
 10
362.422670
 20
1182.816390
 30
0.0
  0
SPLINE
  5
379
100
AcDbEntity
  8
Ebene_1
 62
1
100
AcDbSpline
 70
8
 71
3
 72
8
 73
4
 74
0
 40
0
 40
0
 40
0
 40
0
 40
1
 40
1
 40
1
 40
1
 10
362.422670
 20
1182.816390
 30
0.0
 10
346.421810
 20
1197.338530
 30
0.0
 10
333.743880
 20
1206.032680
 30
0.0
 10
331.022000
 20
1204.350470
 30
0.0
  0
SPLINE
  5
37a
100
AcDbEntity
  8
Ebene_1
 62
1
100
AcDbSpline
 70
8
 71
3
 72
8
 73
4
 74
0
 40
0
 40
0
 40
0
 40
0
 40
1
 40
1
 40
1
 40
1
 10
331.022000
 20
1204.350470
 30
0.0
 10
330.101940
 20
1203.781840
 30
0.0
 10
329.349230
 20
1200.673720
 30
0.0
 10
329.349230
 20
1197.443400
 30
0.0
  0
SPLINE
  5
37b
100
AcDbEntity
  8
Ebene_1
 62
1
100
AcDbSpline
 70
8
 71
3
 72
8
 73
4
 74
0
 40
0
 40
0
 40
0
 40
0
 40
1
 40
1
 40
1
 40
1
 10
329.349230
 20
1197.443400
 30
0.0
 10
329.349230
 20
1193.244380
 30
0.0
 10
331.106350
 20
1190.318930
 30
0.0
 10
335.513200
 20
1187.180980
 30
0.0
  0
SPLINE
  5
37c
100
AcDbEntity
  8
Ebene_1
 62
1
100
AcDbSpline
 70
8
 71
3
 72
8
 73
4
 74
0
 40
0
 40
0
 40
0
 40
0
 40
1
 40
1
 40
1
 40
1
 10
335.513200
 20
1187.180980
 30
0.0
 10
342.948630
 20
1181.886480
 30
0.0
 10
348.965160
 20
1171.246610
 30
0.0
 10
346.128050
 20
1168.409510
 30
0.0
  0
SPLINE
  5
37d
100
AcDbEntity
  8
Ebene_1
 62
1
100
AcDbSpline
 70
8
 71
3
 72
8
 73
4
 74
0
 40
0
 40
0
 40
0
 40
0
 40
1
 40
1
 40
1
 40
1
 10
346.128050
 20
1168.409510
 30
0.0
 10
342.088730
 20
1164.370190
 30
0.0
 10
327.660760
 20
1162.738520
 30
0.0
 10
305.838520
 20
1163.853200
 30
0.0
  0
SPLINE
  5
37e
100
AcDbEntity
  8
Ebene_1
 62
1
100
AcDbSpline
 70
8
 71
3
 72
8
 73
4
 74
0
 40
0
 40
0
 40
0
 40
0
 40
1
 40
1
 40
1
 40
1
 10
305.838520
 20
1163.853200
 30
0.0
 10
283.503270
 20
1164.994110
 30
0.0
 10
274.150530
 20
1167.349550
 30
0.0
 10
274.150530
 20
1171.833080
 30
0.0
  0
SPLINE
  5
37f
100
AcDbEntity
  8
Ebene_1
 62
1
100
AcDbSpline
 70
8
 71
3
 72
8
 73
4
 74
0
 40
0
 40
0
 40
0
 40
0
 40
1
 40
1
 40
1
 40
1
 10
274.150530
 20
1171.833080
 30
0.0
 10
274.150530
 20
1174.747130
 30
0.0
 10
284.551530
 20
1184.852560
 30
0.0
 10
290.886460
 20
1188.093580
 30
0.0
  0
SPLINE
  5
380
100
AcDbEntity
  8
Ebene_1
 62
1
100
AcDbSpline
 70
8
 71
3
 72
8
 73
4
 74
0
 40
0
 40
0
 40
0
 40
0
 40
1
 40
1
 40
1
 40
1
 10
290.886460
 20
1188.093580
 30
0.0
 10
294.340910
 20
1189.860940
 30
0.0
 10
295.503760
 20
1192.064020
 30
0.0
 10
295.197830
 20
1196.262080
 30
0.0
  0
SPLINE
  5
381
100
AcDbEntity
  8
Ebene_1
 62
1
100
AcDbSpline
 70
8
 71
3
 72
8
 73
4
 74
0
 40
0
 40
0
 40
0
 40
0
 40
1
 40
1
 40
1
 40
1
 10
295.197830
 20
1196.262080
 30
0.0
 10
294.644930
 20
1203.849220
 30
0.0
 10
293.457820
 20
1204.734550
 30
0.0
 10
287.857190
 20
1201.737190
 30
0.0
  0
SPLINE
  5
382
100
AcDbEntity
  8
Ebene_1
 62
1
100
AcDbSpline
 70
8
 71
3
 72
8
 73
4
 74
0
 40
0
 40
0
 40
0
 40
0
 40
1
 40
1
 40
1
 40
1
 10
287.857190
 20
1201.737190
 30
0.0
 10
281.773660
 20
1198.481380
 30
0.0
 10
247.573350
 20
1165.352880
 30
0.0
 10
247.573350
 20
1162.715800
 30
0.0
  0
SPLINE
  5
383
100
AcDbEntity
  8
Ebene_1
 62
1
100
AcDbSpline
 70
8
 71
3
 72
8
 73
4
 74
0
 40
0
 40
0
 40
0
 40
0
 40
1
 40
1
 40
1
 40
1
 10
247.573350
 20
1162.715800
 30
0.0
 10
247.573350
 20
1161.604910
 30
0.0
 10
243.426550
 20
1152.057110
 30
0.0
 10
238.358400
 20
1141.498490
 30
0.0
  0
SPLINE
  5
384
100
AcDbEntity
  8
Ebene_1
 62
1
100
AcDbSpline
 70
8
 71
3
 72
8
 73
4
 74
0
 40
0
 40
0
 40
0
 40
0
 40
1
 40
1
 40
1
 40
1
 10
238.358400
 20
1141.498490
 30
0.0
 10
230.953970
 20
1126.072570
 30
0.0
 10
228.531640
 20
1118.133090
 30
0.0
 10
226.028410
 20
1101.086490
 30
0.0
  0
SPLINE
  5
385
100
AcDbEntity
  8
Ebene_1
 62
1
100
AcDbSpline
 70
8
 71
3
 72
8
 73
4
 74
0
 40
0
 40
0
 40
0
 40
0
 40
1
 40
1
 40
1
 40
1
 10
226.028410
 20
1101.086490
 30
0.0
 10
222.142750
 20
1074.625910
 30
0.0
 10
218.210430
 20
1060.613860
 30
0.0
 10
212.706740
 20
1053.617040
 30
0.0
  0
SPLINE
  5
386
100
AcDbEntity
  8
Ebene_1
 62
1
100
AcDbSpline
 70
8
 71
3
 72
8
 73
4
 74
0
 40
0
 40
0
 40
0
 40
0
 40
1
 40
1
 40
1
 40
1
 10
212.706740
 20
1053.617040
 30
0.0
 10
206.234590
 20
1045.389290
 30
0.0
 10
199.454470
 20
1046.464680
 30
0.0
 10
188.998116
 20
1057.377530
 30
0.0
  0
SPLINE
  5
387
100
AcDbEntity
  8
Ebene_1
 62
1
100
AcDbSpline
 70
8
 71
3
 72
8
 73
4
 74
0
 40
0
 40
0
 40
0
 40
0
 40
1
 40
1
 40
1
 40
1
 10
188.998116
 20
1057.377530
 30
0.0
 10
176.245696
 20
1070.686700
 30
0.0
 10
173.360906
 20
1086.079720
 30
0.0
 10
185.863936
 20
1074.101060
 30
0.0
  0
SPLINE
  5
388
100
AcDbEntity
  8
Ebene_1
 62
1
100
AcDbSpline
 70
8
 71
3
 72
8
 73
4
 74
0
 40
0
 40
0
 40
0
 40
0
 40
1
 40
1
 40
1
 40
1
 10
185.863936
 20
1074.101060
 30
0.0
 10
192.523120
 20
1067.721140
 30
0.0
 10
195.987700
 20
1067.248120
 30
0.0
 10
199.750940
 20
1072.205570
 30
0.0
  0
SPLINE
  5
389
100
AcDbEntity
  8
Ebene_1
 62
1
100
AcDbSpline
 70
8
 71
3
 72
8
 73
4
 74
0
 40
0
 40
0
 40
0
 40
0
 40
1
 40
1
 40
1
 40
1
 10
199.750940
 20
1072.205570
 30
0.0
 10
204.072480
 20
1077.898480
 30
0.0
 10
203.077420
 20
1080.466120
 30
0.0
 10
195.952720
 20
1082.003930
 30
0.0
  0
SPLINE
  5
38a
100
AcDbEntity
  8
Ebene_1
 62
1
100
AcDbSpline
 70
8
 71
3
 72
8
 73
4
 74
0
 40
0
 40
0
 40
0
 40
0
 40
1
 40
1
 40
1
 40
1
 10
195.952720
 20
1082.003930
 30
0.0
 10
180.194356
 20
1085.405280
 30
0.0
 10
167.938356
 20
1095.357440
 30
0.0
 10
170.687086
 20
1102.520510
 30
0.0
  0
SPLINE
  5
38b
100
AcDbEntity
  8
Ebene_1
 62
1
100
AcDbSpline
 70
8
 71
3
 72
8
 73
4
 74
0
 40
0
 40
0
 40
0
 40
0
 40
1
 40
1
 40
1
 40
1
 10
170.687086
 20
1102.520510
 30
0.0
 10
172.269376
 20
1106.643890
 30
0.0
 10
175.164866
 20
1106.155260
 30
0.0
 10
183.758116
 20
1100.315990
 30
0.0
  0
SPLINE
  5
38c
100
AcDbEntity
  8
Ebene_1
 62
1
100
AcDbSpline
 70
8
 71
3
 72
8
 73
4
 74
0
 40
0
 40
0
 40
0
 40
0
 40
1
 40
1
 40
1
 40
1
 10
183.758116
 20
1100.315990
 30
0.0
 10
193.176420
 20
1093.916090
 30
0.0
 10
196.801490
 20
1093.904550
 30
0.0
 10
204.015800
 20
1100.251390
 30
0.0
  0
LWPOLYLINE
  5
38d
100
AcDbEntity
  8
Ebene_1
 62
1
100
AcDbPolyline
 90
3
 70
0
 10
427.664160
 20
1110.895160
 30
0.0
 10
418.648690
 20
1110.878660
 30
0.0
 10
424.597680
 20
1106.118740
 30
0.0
  0
SPLINE
  5
38e
100
AcDbEntity
  8
Ebene_1
 62
1
100
AcDbSpline
 70
8
 71
3
 72
8
 73
4
 74
0
 40
0
 40
0
 40
0
 40
0
 40
1
 40
1
 40
1
 40
1
 10
200.828910
 20
1105.362710
 30
0.0
 10
181.516706
 20
1105.502520
 30
0.0
 10
163.658376
 20
1121.699260
 30
0.0
 10
166.840806
 20
1136.188730
 30
0.0
  0
SPLINE
  5
38f
100
AcDbEntity
  8
Ebene_1
 62
1
100
AcDbSpline
 70
8
 71
3
 72
8
 73
4
 74
0
 40
0
 40
0
 40
0
 40
0
 40
1
 40
1
 40
1
 40
1
 10
166.840806
 20
1136.188730
 30
0.0
 10
168.715676
 20
1144.725000
 30
0.0
 10
172.181096
 20
1143.694340
 30
0.0
 10
177.909386
 20
1132.896430
 30
0.0
  0
SPLINE
  5
390
100
AcDbEntity
  8
Ebene_1
 62
1
100
AcDbSpline
 70
8
 71
3
 72
8
 73
4
 74
0
 40
0
 40
0
 40
0
 40
0
 40
1
 40
1
 40
1
 40
1
 10
177.909386
 20
1132.896430
 30
0.0
 10
183.847046
 20
1121.703840
 30
0.0
 10
191.815836
 20
1116.804760
 30
0.0
 10
199.396440
 20
1119.686900
 30
0.0
  0
SPLINE
  5
391
100
AcDbEntity
  8
Ebene_1
 62
1
100
AcDbSpline
 70
8
 71
3
 72
8
 73
4
 74
0
 40
0
 40
0
 40
0
 40
0
 40
1
 40
1
 40
1
 40
1
 10
199.396440
 20
1119.686900
 30
0.0
 10
204.632580
 20
1121.677680
 30
0.0
 10
219.305570
 20
1141.919500
 30
0.0
 10
217.587060
 20
1144.781490
 30
0.0
  0
SPLINE
  5
392
100
AcDbEntity
  8
Ebene_1
 62
1
100
AcDbSpline
 70
8
 71
3
 72
8
 73
4
 74
0
 40
0
 40
0
 40
0
 40
0
 40
1
 40
1
 40
1
 40
1
 10
217.587060
 20
1144.781490
 30
0.0
 10
217.080680
 20
1145.624800
 30
0.0
 10
213.270590
 20
1146.334990
 30
0.0
 10
209.120400
 20
1146.359690
 30
0.0
  0
SPLINE
  5
393
100
AcDbEntity
  8
Ebene_1
 62
1
100
AcDbSpline
 70
8
 71
3
 72
8
 73
4
 74
0
 40
0
 40
0
 40
0
 40
0
 40
1
 40
1
 40
1
 40
1
 10
209.120400
 20
1146.359690
 30
0.0
 10
197.900720
 20
1146.426490
 30
0.0
 10
185.420936
 20
1153.002310
 30
0.0
 10
173.066786
 20
1165.356460
 30
0.0
  0
SPLINE
  5
394
100
AcDbEntity
  8
Ebene_1
 62
1
100
AcDbSpline
 70
8
 71
3
 72
8
 73
4
 74
0
 40
0
 40
0
 40
0
 40
0
 40
1
 40
1
 40
1
 40
1
 10
173.066786
 20
1165.356460
 30
0.0
 10
161.662356
 20
1176.760890
 30
0.0
 10
155.711166
 20
1189.638140
 30
0.0
 10
158.553976
 20
1196.760230
 30
0.0
  0
SPLINE
  5
395
100
AcDbEntity
  8
Ebene_1
 62
1
100
AcDbSpline
 70
8
 71
3
 72
8
 73
4
 74
0
 40
0
 40
0
 40
0
 40
0
 40
1
 40
1
 40
1
 40
1
 10
158.553976
 20
1196.760230
 30
0.0
 10
159.910696
 20
1200.159210
 30
0.0
 10
160.334176
 20
1200.036440
 30
0.0
 10
163.309236
 20
1195.380470
 30
0.0
  0
SPLINE
  5
396
100
AcDbEntity
  8
Ebene_1
 62
1
100
AcDbSpline
 70
8
 71
3
 72
8
 73
4
 74
0
 40
0
 40
0
 40
0
 40
0
 40
1
 40
1
 40
1
 40
1
 10
163.309236
 20
1195.380470
 30
0.0
 10
165.105436
 20
1192.569430
 30
0.0
 10
171.818506
 20
1185.045550
 30
0.0
 10
178.227196
 20
1178.660560
 30
0.0
  0
SPLINE
  5
397
100
AcDbEntity
  8
Ebene_1
 62
1
100
AcDbSpline
 70
8
 71
3
 72
8
 73
4
 74
0
 40
0
 40
0
 40
0
 40
0
 40
1
 40
1
 40
1
 40
1
 10
178.227196
 20
1178.660560
 30
0.0
 10
198.478360
 20
1158.484240
 30
0.0
 10
215.632270
 20
1156.828070
 30
0.0
 10
232.751510
 20
1173.396800
 30
0.0
  0
SPLINE
  5
398
100
AcDbEntity
  8
Ebene_1
 62
1
100
AcDbSpline
 70
8
 71
3
 72
8
 73
4
 74
0
 40
0
 40
0
 40
0
 40
0
 40
1
 40
1
 40
1
 40
1
 10
232.751510
 20
1173.396800
 30
0.0
 10
241.827940
 20
1182.181340
 30
0.0
 10
241.224180
 20
1184.682970
 30
0.0
 10
229.685030
 20
1186.101450
 30
0.0
  0
SPLINE
  5
399
100
AcDbEntity
  8
Ebene_1
 62
1
100
AcDbSpline
 70
8
 71
3
 72
8
 73
4
 74
0
 40
0
 40
0
 40
0
 40
0
 40
1
 40
1
 40
1
 40
1
 10
229.685030
 20
1186.101450
 30
0.0
 10
200.277760
 20
1189.716380
 30
0.0
 10
193.559610
 20
1191.331250
 30
0.0
 10
185.932146
 20
1196.617080
 30
0.0
  0
SPLINE
  5
39a
100
AcDbEntity
  8
Ebene_1
 62
1
100
AcDbSpline
 70
8
 71
3
 72
8
 73
4
 74
0
 40
0
 40
0
 40
0
 40
0
 40
1
 40
1
 40
1
 40
1
 10
185.932146
 20
1196.617080
 30
0.0
 10
169.952226
 20
1207.691180
 30
0.0
 10
160.523436
 20
1226.530860
 30
0.0
 10
165.497216
 20
1237.447150
 30
0.0
  0
SPLINE
  5
39b
100
AcDbEntity
  8
Ebene_1
 62
1
100
AcDbSpline
 70
8
 71
3
 72
8
 73
4
 74
0
 40
0
 40
0
 40
0
 40
0
 40
1
 40
1
 40
1
 40
1
 10
165.497216
 20
1237.447150
 30
0.0
 10
168.523016
 20
1244.088040
 30
0.0
 10
171.321546
 20
1243.695410
 30
0.0
 10
172.922606
 20
1236.405870
 30
0.0
  0
SPLINE
  5
39c
100
AcDbEntity
  8
Ebene_1
 62
1
100
AcDbSpline
 70
8
 71
3
 72
8
 73
4
 74
0
 40
0
 40
0
 40
0
 40
0
 40
1
 40
1
 40
1
 40
1
 10
172.922606
 20
1236.405870
 30
0.0
 10
176.047536
 20
1222.178180
 30
0.0
 10
199.391600
 20
1203.660690
 30
0.0
 10
217.929680
 20
1200.704170
 30
0.0
  0
SPLINE
  5
39d
100
AcDbEntity
  8
Ebene_1
 62
1
100
AcDbSpline
 70
8
 71
3
 72
8
 73
4
 74
0
 40
0
 40
0
 40
0
 40
0
 40
1
 40
1
 40
1
 40
1
 10
217.929680
 20
1200.704170
 30
0.0
 10
236.098280
 20
1197.806580
 30
0.0
 10
266.983890
 20
1207.862080
 30
0.0
 10
282.936040
 20
1221.868260
 30
0.0
  0
SPLINE
  5
39e
100
AcDbEntity
  8
Ebene_1
 62
1
100
AcDbSpline
 70
8
 71
3
 72
8
 73
4
 74
0
 40
0
 40
0
 40
0
 40
0
 40
1
 40
1
 40
1
 40
1
 10
282.936040
 20
1221.868260
 30
0.0
 10
290.229510
 20
1228.272000
 30
0.0
 10
292.835430
 20
1234.224090
 30
0.0
 10
288.345530
 20
1234.224090
 30
0.0
  0
SPLINE
  5
39f
100
AcDbEntity
  8
Ebene_1
 62
1
100
AcDbSpline
 70
8
 71
3
 72
8
 73
4
 74
0
 40
0
 40
0
 40
0
 40
0
 40
1
 40
1
 40
1
 40
1
 10
288.345530
 20
1234.224090
 30
0.0
 10
287.157430
 20
1234.224090
 30
0.0
 10
278.647280
 20
1230.330190
 30
0.0
 10
269.434540
 20
1225.571390
 30
0.0
  0
SPLINE
  5
3a0
100
AcDbEntity
  8
Ebene_1
 62
1
100
AcDbSpline
 70
8
 71
3
 72
8
 73
4
 74
0
 40
0
 40
0
 40
0
 40
0
 40
1
 40
1
 40
1
 40
1
 10
269.434540
 20
1225.571390
 30
0.0
 10
255.205120
 20
1218.221190
 30
0.0
 10
250.448830
 20
1216.802740
 30
0.0
 10
237.831820
 20
1216.146640
 30
0.0
  0
SPLINE
  5
3a1
100
AcDbEntity
  8
Ebene_1
 62
1
100
AcDbSpline
 70
8
 71
3
 72
8
 73
4
 74
0
 40
0
 40
0
 40
0
 40
0
 40
1
 40
1
 40
1
 40
1
 10
237.831820
 20
1216.146640
 30
0.0
 10
224.809430
 20
1215.469450
 30
0.0
 10
221.538280
 20
1216.079340
 30
0.0
 10
211.280990
 20
1221.097760
 30
0.0
  0
SPLINE
  5
3a2
100
AcDbEntity
  8
Ebene_1
 62
1
100
AcDbSpline
 70
8
 71
3
 72
8
 73
4
 74
0
 40
0
 40
0
 40
0
 40
0
 40
1
 40
1
 40
1
 40
1
 10
211.280990
 20
1221.097760
 30
0.0
 10
188.356336
 20
1232.313740
 30
0.0
 10
174.087526
 20
1252.707660
 30
0.0
 10
177.423106
 20
1269.489640
 30
0.0
  0
SPLINE
  5
3a3
100
AcDbEntity
  8
Ebene_1
 62
1
100
AcDbSpline
 70
8
 71
3
 72
8
 73
4
 74
0
 40
0
 40
0
 40
0
 40
0
 40
1
 40
1
 40
1
 40
1
 10
177.423106
 20
1269.489640
 30
0.0
 10
179.064376
 20
1277.747160
 30
0.0
 10
181.405246
 20
1276.438570
 30
0.0
 10
187.306226
 20
1263.964910
 30
0.0
  0
SPLINE
  5
3a4
100
AcDbEntity
  8
Ebene_1
 62
1
100
AcDbSpline
 70
8
 71
3
 72
8
 73
4
 74
0
 40
0
 40
0
 40
0
 40
0
 40
1
 40
1
 40
1
 40
1
 10
187.306226
 20
1263.964910
 30
0.0
 10
196.536280
 20
1244.454160
 30
0.0
 10
216.646250
 20
1230.134930
 30
0.0
 10
234.817530
 20
1230.134930
 30
0.0
  0
SPLINE
  5
3a5
100
AcDbEntity
  8
Ebene_1
 62
1
100
AcDbSpline
 70
8
 71
3
 72
8
 73
4
 74
0
 40
0
 40
0
 40
0
 40
0
 40
1
 40
1
 40
1
 40
1
 10
234.817530
 20
1230.134930
 30
0.0
 10
247.500400
 20
1230.134930
 30
0.0
 10
284.372650
 20
1244.105580
 30
0.0
 10
284.372650
 20
1248.911050
 30
0.0
  0
SPLINE
  5
3a6
100
AcDbEntity
  8
Ebene_1
 62
1
100
AcDbSpline
 70
8
 71
3
 72
8
 73
4
 74
0
 40
0
 40
0
 40
0
 40
0
 40
1
 40
1
 40
1
 40
1
 10
284.372650
 20
1248.911050
 30
0.0
 10
284.372650
 20
1249.828410
 30
0.0
 10
275.825700
 20
1250.579160
 30
0.0
 10
265.380010
 20
1250.579160
 30
0.0
  0
SPLINE
  5
3a7
100
AcDbEntity
  8
Ebene_1
 62
1
100
AcDbSpline
 70
8
 71
3
 72
8
 73
4
 74
0
 40
0
 40
0
 40
0
 40
0
 40
1
 40
1
 40
1
 40
1
 10
265.380010
 20
1250.579160
 30
0.0
 10
242.356470
 20
1250.579160
 30
0.0
 10
225.740820
 20
1254.573260
 30
0.0
 10
210.774560
 20
1263.704980
 30
0.0
  0
SPLINE
  5
3a8
100
AcDbEntity
  8
Ebene_1
 62
1
100
AcDbSpline
 70
8
 71
3
 72
8
 73
4
 74
0
 40
0
 40
0
 40
0
 40
0
 40
1
 40
1
 40
1
 40
1
 10
210.774560
 20
1263.704980
 30
0.0
 10
189.309466
 20
1276.801980
 30
0.0
 10
180.799976
 20
1297.278460
 30
0.0
 10
190.742186
 20
1311.910820
 30
0.0
  0
SPLINE
  5
3a9
100
AcDbEntity
  8
Ebene_1
 62
1
100
AcDbSpline
 70
8
 71
3
 72
8
 73
4
 74
0
 40
0
 40
0
 40
0
 40
0
 40
1
 40
1
 40
1
 40
1
 10
190.742186
 20
1311.910820
 30
0.0
 10
196.856480
 20
1320.909460
 30
0.0
 10
203.936700
 20
1321.782910
 30
0.0
 10
202.957980
 20
1313.417710
 30
0.0
  0
SPLINE
  5
3aa
100
AcDbEntity
  8
Ebene_1
 62
1
100
AcDbSpline
 70
8
 71
3
 72
8
 73
4
 74
0
 40
0
 40
0
 40
0
 40
0
 40
1
 40
1
 40
1
 40
1
 10
202.957980
 20
1313.417710
 30
0.0
 10
200.234380
 20
1290.138930
 30
0.0
 10
226.245680
 20
1272.637240
 30
0.0
 10
267.968480
 20
1269.675670
 30
0.0
  0
SPLINE
  5
3ab
100
AcDbEntity
  8
Ebene_1
 62
1
100
AcDbSpline
 70
8
 71
3
 72
8
 73
4
 74
0
 40
0
 40
0
 40
0
 40
0
 40
1
 40
1
 40
1
 40
1
 10
267.968480
 20
1269.675670
 30
0.0
 10
282.929720
 20
1268.613690
 30
0.0
 10
286.096200
 20
1268.949800
 30
0.0
 10
289.061250
 20
1271.914810
 30
0.0
  0
SPLINE
  5
3ac
100
AcDbEntity
  8
Ebene_1
 62
1
100
AcDbSpline
 70
8
 71
3
 72
8
 73
4
 74
0
 40
0
 40
0
 40
0
 40
0
 40
1
 40
1
 40
1
 40
1
 10
289.061250
 20
1271.914810
 30
0.0
 10
290.980070
 20
1273.833660
 30
0.0
 10
292.549930
 20
1276.121630
 30
0.0
 10
292.549930
 20
1276.998740
 30
0.0
  0
SPLINE
  5
3ad
100
AcDbEntity
  8
Ebene_1
 62
1
100
AcDbSpline
 70
8
 71
3
 72
8
 73
4
 74
0
 40
0
 40
0
 40
0
 40
0
 40
1
 40
1
 40
1
 40
1
 10
292.549930
 20
1276.998740
 30
0.0
 10
292.549930
 20
1277.875820
 30
0.0
 10
284.960190
 20
1279.138720
 30
0.0
 10
275.683770
 20
1279.805290
 30
0.0
  0
SPLINE
  5
3ae
100
AcDbEntity
  8
Ebene_1
 62
1
100
AcDbSpline
 70
8
 71
3
 72
8
 73
4
 74
0
 40
0
 40
0
 40
0
 40
0
 40
1
 40
1
 40
1
 40
1
 10
275.683770
 20
1279.805290
 30
0.0
 10
247.775270
 20
1281.810720
 30
0.0
 10
232.756190
 20
1289.198900
 30
0.0
 10
218.780790
 20
1307.798410
 30
0.0
  0
SPLINE
  5
3af
100
AcDbEntity
  8
Ebene_1
 62
1
100
AcDbSpline
 70
8
 71
3
 72
8
 73
4
 74
0
 40
0
 40
0
 40
0
 40
0
 40
1
 40
1
 40
1
 40
1
 10
218.780790
 20
1307.798410
 30
0.0
 10
208.215190
 20
1321.859900
 30
0.0
 10
204.838560
 20
1332.967190
 30
0.0
 10
208.918860
 20
1340.236740
 30
0.0
  0
SPLINE
  5
3b0
100
AcDbEntity
  8
Ebene_1
 62
1
100
AcDbSpline
 70
8
 71
3
 72
8
 73
4
 74
0
 40
0
 40
0
 40
0
 40
0
 40
1
 40
1
 40
1
 40
1
 10
208.918860
 20
1340.236740
 30
0.0
 10
213.661860
 20
1348.686980
 30
0.0
 10
218.212080
 20
1348.215730
 30
0.0
 10
219.879430
 20
1339.101410
 30
0.0
  0
SPLINE
  5
3b1
100
AcDbEntity
  8
Ebene_1
 62
1
100
AcDbSpline
 70
8
 71
3
 72
8
 73
4
 74
0
 40
0
 40
0
 40
0
 40
0
 40
1
 40
1
 40
1
 40
1
 10
219.879430
 20
1339.101410
 30
0.0
 10
222.783450
 20
1323.227010
 30
0.0
 10
240.413460
 20
1301.586610
 30
0.0
 10
253.144060
 20
1298.269790
 30
0.0
  0
SPLINE
  5
3b2
100
AcDbEntity
  8
Ebene_1
 62
1
100
AcDbSpline
 70
8
 71
3
 72
8
 73
4
 74
0
 40
0
 40
0
 40
0
 40
0
 40
1
 40
1
 40
1
 40
1
 10
253.144060
 20
1298.269790
 30
0.0
 10
256.264540
 20
1297.456770
 30
0.0
 10
266.177370
 20
1296.743780
 30
0.0
 10
275.172690
 20
1296.684880
 30
0.0
  0
SPLINE
  5
3b3
100
AcDbEntity
  8
Ebene_1
 62
1
100
AcDbSpline
 70
8
 71
3
 72
8
 73
4
 74
0
 40
0
 40
0
 40
0
 40
0
 40
1
 40
1
 40
1
 40
1
 10
275.172690
 20
1296.684880
 30
0.0
 10
290.537680
 20
1296.584380
 30
0.0
 10
291.566820
 20
1296.851750
 30
0.0
 10
292.171660
 20
1301.105280
 30
0.0
  0
SPLINE
  5
3b4
100
AcDbEntity
  8
Ebene_1
 62
1
100
AcDbSpline
 70
8
 71
3
 72
8
 73
4
 74
0
 40
0
 40
0
 40
0
 40
0
 40
1
 40
1
 40
1
 40
1
 10
292.171660
 20
1301.105280
 30
0.0
 10
292.673760
 20
1304.636370
 30
0.0
 10
291.549010
 20
1305.913740
 30
0.0
 10
287.060860
 20
1306.908030
 30
0.0
  0
SPLINE
  5
3b5
100
AcDbEntity
  8
Ebene_1
 62
1
100
AcDbSpline
 70
8
 71
3
 72
8
 73
4
 74
0
 40
0
 40
0
 40
0
 40
0
 40
1
 40
1
 40
1
 40
1
 10
287.060860
 20
1306.908030
 30
0.0
 10
253.620150
 20
1314.316490
 30
0.0
 10
243.032210
 20
1317.813940
 30
0.0
 10
220.147110
 20
1354.056050
 30
0.0
  0
SPLINE
  5
3b6
100
AcDbEntity
  8
Ebene_1
 62
1
100
AcDbSpline
 70
8
 71
3
 72
8
 73
4
 74
0
 40
0
 40
0
 40
0
 40
0
 40
1
 40
1
 40
1
 40
1
 10
220.147110
 20
1354.056050
 30
0.0
 10
195.056510
 20
1366.800410
 30
0.0
 10
159.013746
 20
1331.920020
 30
0.0
 10
136.405526
 20
1336.283060
 30
0.0
  0
SPLINE
  5
3b7
100
AcDbEntity
  8
Ebene_1
 62
1
100
AcDbSpline
 70
8
 71
3
 72
8
 73
4
 74
0
 40
0
 40
0
 40
0
 40
0
 40
1
 40
1
 40
1
 40
1
 10
136.405526
 20
1336.283060
 30
0.0
 10
122.530056
 20
1340.033930
 30
0.0
 10
127.696096
 20
1370.057210
 30
0.0
 10
128.452946
 20
1371.636200
 30
0.0
  0
SPLINE
  5
3b8
100
AcDbEntity
  8
Ebene_1
 62
1
100
AcDbSpline
 70
8
 71
3
 72
8
 73
4
 74
0
 40
0
 40
0
 40
0
 40
0
 40
1
 40
1
 40
1
 40
1
 10
128.452946
 20
1371.636200
 30
0.0
 10
135.147556
 20
1385.602960
 30
0.0
 10
191.808196
 20
1380.349150
 30
0.0
 10
200.522410
 20
1380.432550
 30
0.0
  0
SPLINE
  5
3b9
100
AcDbEntity
  8
Ebene_1
 62
1
100
AcDbSpline
 70
8
 71
3
 72
8
 73
4
 74
0
 40
0
 40
0
 40
0
 40
0
 40
1
 40
1
 40
1
 40
1
 10
200.522410
 20
1380.432550
 30
0.0
 10
219.468540
 20
1383.799710
 30
0.0
 10
217.739260
 20
1381.396500
 30
0.0
 10
221.791660
 20
1394.258060
 30
0.0
  0
SPLINE
  5
3ba
100
AcDbEntity
  8
Ebene_1
 62
1
100
AcDbSpline
 70
8
 71
3
 72
8
 73
4
 74
0
 40
0
 40
0
 40
0
 40
0
 40
1
 40
1
 40
1
 40
1
 10
221.791660
 20
1394.258060
 30
0.0
 10
226.313140
 20
1407.307040
 30
0.0
 10
241.024850
 20
1408.818820
 30
0.0
 10
264.435590
 20
1405.688060
 30
0.0
  0
SPLINE
  5
3bb
100
AcDbEntity
  8
Ebene_1
 62
1
100
AcDbSpline
 70
8
 71
3
 72
8
 73
4
 74
0
 40
0
 40
0
 40
0
 40
0
 40
1
 40
1
 40
1
 40
1
 10
264.435590
 20
1405.688060
 30
0.0
 10
271.481510
 20
1404.745800
 30
0.0
 10
286.357210
 20
1403.143680
 30
0.0
 10
288.541830
 20
1405.167070
 30
0.0
  0
SPLINE
  5
3bc
100
AcDbEntity
  8
Ebene_1
 62
1
100
AcDbSpline
 70
8
 71
3
 72
8
 73
4
 74
0
 40
0
 40
0
 40
0
 40
0
 40
1
 40
1
 40
1
 40
1
 10
288.541830
 20
1405.167070
 30
0.0
 10
290.726460
 20
1407.190470
 30
0.0
 10
287.624210
 20
1410.444620
 30
0.0
 10
284.263890
 20
1411.808110
 30
0.0
  0
SPLINE
  5
3bd
100
AcDbEntity
  8
Ebene_1
 62
1
100
AcDbSpline
 70
8
 71
3
 72
8
 73
4
 74
0
 40
0
 40
0
 40
0
 40
0
 40
1
 40
1
 40
1
 40
1
 10
284.263890
 20
1411.808110
 30
0.0
 10
281.971020
 20
1416.238140
 30
0.0
 10
296.192510
 20
1417.136220
 30
0.0
 10
291.563210
 20
1419.381540
 30
0.0
  0
SPLINE
  5
3be
100
AcDbEntity
  8
Ebene_1
 62
1
100
AcDbSpline
 70
8
 71
3
 72
8
 73
4
 74
0
 40
0
 40
0
 40
0
 40
0
 40
1
 40
1
 40
1
 40
1
 10
291.563210
 20
1419.381540
 30
0.0
 10
284.135290
 20
1422.833950
 30
0.0
 10
278.271560
 20
1424.752280
 30
0.0
 10
281.833540
 20
1430.352660
 30
0.0
  0
SPLINE
  5
3bf
100
AcDbEntity
  8
Ebene_1
 62
1
100
AcDbSpline
 70
8
 71
3
 72
8
 73
4
 74
0
 40
0
 40
0
 40
0
 40
0
 40
1
 40
1
 40
1
 40
1
 10
281.833540
 20
1430.352660
 30
0.0
 10
282.790230
 20
1431.856840
 30
0.0
 10
288.622120
 20
1436.502370
 30
0.0
 10
300.754600
 20
1436.812240
 30
0.0
  0
SPLINE
  5
3c0
100
AcDbEntity
  8
Ebene_1
 62
1
100
AcDbSpline
 70
8
 71
3
 72
8
 73
4
 74
0
 40
0
 40
0
 40
0
 40
0
 40
1
 40
1
 40
1
 40
1
 10
300.754600
 20
1436.812240
 30
0.0
 10
304.513650
 20
1436.908240
 30
0.0
 10
307.699590
 20
1436.938100
 30
0.0
 10
310.444960
 20
1436.886640
 30
0.0
  0
LWPOLYLINE
  5
3c1
100
AcDbEntity
  8
Ebene_1
 62
1
100
AcDbPolyline
 90
3
 70
0
 10
204.015800
 20
1100.251390
 30
0.0
 10
209.751880
 20
1105.298110
 30
0.0
 10
200.828910
 20
1105.362710
 30
0.0
  0
SPLINE
  5
3c2
100
AcDbEntity
  8
Ebene_1
 62
1
100
AcDbSpline
 70
8
 71
3
 72
8
 73
4
 74
0
 40
0
 40
0
 40
0
 40
0
 40
1
 40
1
 40
1
 40
1
 10
341.326410
 20
1591.104720
 30
0.0
 10
347.906170
 20
1591.036120
 30
0.0
 10
355.746840
 20
1589.269670
 30
0.0
 10
360.166610
 20
1586.299840
 30
0.0
  0
SPLINE
  5
3c3
100
AcDbEntity
  8
Ebene_1
 62
1
100
AcDbSpline
 70
8
 71
3
 72
8
 73
4
 74
0
 40
0
 40
0
 40
0
 40
0
 40
1
 40
1
 40
1
 40
1
 10
360.166610
 20
1586.299840
 30
0.0
 10
366.228290
 20
1582.226740
 30
0.0
 10
369.868150
 20
1579.909400
 30
0.0
 10
370.418180
 20
1571.340430
 30
0.0
  0
SPLINE
  5
3c4
100
AcDbEntity
  8
Ebene_1
 62
1
100
AcDbSpline
 70
8
 71
3
 72
8
 73
4
 74
0
 40
0
 40
0
 40
0
 40
0
 40
1
 40
1
 40
1
 40
1
 10
370.418180
 20
1571.340430
 30
0.0
 10
371.353340
 20
1556.771690
 30
0.0
 10
368.370030
 20
1546.775630
 30
0.0
 10
355.811260
 20
1546.775630
 30
0.0
  0
SPLINE
  5
3c5
100
AcDbEntity
  8
Ebene_1
 62
1
100
AcDbSpline
 70
8
 71
3
 72
8
 73
4
 74
0
 40
0
 40
0
 40
0
 40
0
 40
1
 40
1
 40
1
 40
1
 10
355.811260
 20
1546.775630
 30
0.0
 10
348.843780
 20
1546.775630
 30
0.0
 10
343.422750
 20
1549.586850
 30
0.0
 10
338.520210
 20
1552.934290
 30
0.0
  0
SPLINE
  5
3c6
100
AcDbEntity
  8
Ebene_1
 62
1
100
AcDbSpline
 70
8
 71
3
 72
8
 73
4
 74
0
 40
0
 40
0
 40
0
 40
0
 40
1
 40
1
 40
1
 40
1
 10
338.520210
 20
1552.934290
 30
0.0
 10
331.722280
 20
1557.575920
 30
0.0
 10
327.337200
 20
1559.529290
 30
0.0
 10
327.845850
 20
1572.280450
 30
0.0
  0
SPLINE
  5
3c7
100
AcDbEntity
  8
Ebene_1
 62
1
100
AcDbSpline
 70
8
 71
3
 72
8
 73
4
 74
0
 40
0
 40
0
 40
0
 40
0
 40
1
 40
1
 40
1
 40
1
 10
327.845850
 20
1572.280450
 30
0.0
 10
327.881150
 20
1583.279780
 30
0.0
 10
331.147590
 20
1591.150410
 30
0.0
 10
341.326410
 20
1591.104720
 30
0.0
  0
LWPOLYLINE
  5
3c8
100
AcDbEntity
  8
Ebene_1
 62
1
100
AcDbPolyline
 90
1
 70
1
 10
310.444960
 20
1436.886640
 30
0.0
  0
SPLINE
  5
3c9
100
AcDbEntity
  8
Ebene_1
 62
1
100
AcDbSpline
 70
8
 71
3
 72
8
 73
4
 74
0
 40
0
 40
0
 40
0
 40
0
 40
1
 40
1
 40
1
 40
1
 10
264.624420
 20
1591.252610
 30
0.0
 10
272.834570
 20
1591.277110
 30
0.0
 10
277.699720
 20
1590.093180
 30
0.0
 10
282.356130
 20
1585.632070
 30
0.0
  0
SPLINE
  5
3ca
100
AcDbEntity
  8
Ebene_1
 62
1
100
AcDbSpline
 70
8
 71
3
 72
8
 73
4
 74
0
 40
0
 40
0
 40
0
 40
0
 40
1
 40
1
 40
1
 40
1
 10
282.356130
 20
1585.632070
 30
0.0
 10
287.226060
 20
1580.966380
 30
0.0
 10
286.359740
 20
1576.303740
 30
0.0
 10
286.359740
 20
1567.102050
 30
0.0
  0
SPLINE
  5
3cb
100
AcDbEntity
  8
Ebene_1
 62
1
100
AcDbSpline
 70
8
 71
3
 72
8
 73
4
 74
0
 40
0
 40
0
 40
0
 40
0
 40
1
 40
1
 40
1
 40
1
 10
286.359740
 20
1567.102050
 30
0.0
 10
286.359740
 20
1556.527430
 30
0.0
 10
286.176430
 20
1556.189150
 30
0.0
 10
278.693540
 20
1552.993870
 30
0.0
  0
SPLINE
  5
3cc
100
AcDbEntity
  8
Ebene_1
 62
1
100
AcDbSpline
 70
8
 71
3
 72
8
 73
4
 74
0
 40
0
 40
0
 40
0
 40
0
 40
1
 40
1
 40
1
 40
1
 10
278.693540
 20
1552.993870
 30
0.0
 10
274.477010
 20
1551.193320
 30
0.0
 10
265.337600
 20
1547.987760
 30
0.0
 10
259.153310
 20
1547.408530
 30
0.0
  0
SPLINE
  5
3cd
100
AcDbEntity
  8
Ebene_1
 62
1
100
AcDbSpline
 70
8
 71
3
 72
8
 73
4
 74
0
 40
0
 40
0
 40
0
 40
0
 40
1
 40
1
 40
1
 40
1
 10
259.153310
 20
1547.408530
 30
0.0
 10
243.218720
 20
1541.518950
 30
0.0
 10
238.521450
 20
1569.972130
 30
0.0
 10
241.925250
 20
1578.426940
 30
0.0
  0
SPLINE
  5
3ce
100
AcDbEntity
  8
Ebene_1
 62
1
100
AcDbSpline
 70
8
 71
3
 72
8
 73
4
 74
0
 40
0
 40
0
 40
0
 40
0
 40
1
 40
1
 40
1
 40
1
 10
241.925250
 20
1578.426940
 30
0.0
 10
245.324400
 20
1585.515880
 30
0.0
 10
252.462690
 20
1591.216310
 30
0.0
 10
264.624420
 20
1591.252610
 30
0.0
  0
LWPOLYLINE
  5
3cf
100
AcDbEntity
  8
Ebene_1
 62
1
100
AcDbPolyline
 90
1
 70
1
 10
341.326410
 20
1591.104720
 30
0.0
  0
SPLINE
  5
3d0
100
AcDbEntity
  8
Ebene_1
 62
1
100
AcDbSpline
 70
8
 71
3
 72
8
 73
4
 74
0
 40
0
 40
0
 40
0
 40
0
 40
1
 40
1
 40
1
 40
1
 10
307.572920
 20
1569.790770
 30
0.0
 10
308.245450
 20
1569.808270
 30
0.0
 10
308.995710
 20
1569.207730
 30
0.0
 10
310.054420
 20
1568.149010
 30
0.0
  0
SPLINE
  5
3d1
100
AcDbEntity
  8
Ebene_1
 62
1
100
AcDbSpline
 70
8
 71
3
 72
8
 73
4
 74
0
 40
0
 40
0
 40
0
 40
0
 40
1
 40
1
 40
1
 40
1
 10
310.054420
 20
1568.149010
 30
0.0
 10
313.085950
 20
1565.117510
 30
0.0
 10
318.177430
 20
1546.997780
 30
0.0
 10
320.445520
 20
1531.168840
 30
0.0
  0
SPLINE
  5
3d2
100
AcDbEntity
  8
Ebene_1
 62
1
100
AcDbSpline
 70
8
 71
3
 72
8
 73
4
 74
0
 40
0
 40
0
 40
0
 40
0
 40
1
 40
1
 40
1
 40
1
 10
320.445520
 20
1531.168840
 30
0.0
 10
321.549410
 20
1523.464920
 30
0.0
 10
319.340010
 20
1521.158840
 30
0.0
 10
315.549180
 20
1526.058040
 30
0.0
  0
SPLINE
  5
3d3
100
AcDbEntity
  8
Ebene_1
 62
1
100
AcDbSpline
 70
8
 71
3
 72
8
 73
4
 74
0
 40
0
 40
0
 40
0
 40
0
 40
1
 40
1
 40
1
 40
1
 10
315.549180
 20
1526.058040
 30
0.0
 10
314.461620
 20
1527.463560
 30
0.0
 10
312.997610
 20
1530.223270
 30
0.0
 10
312.296140
 20
1532.191000
 30
0.0
  0
SPLINE
  5
3d4
100
AcDbEntity
  8
Ebene_1
 62
1
100
AcDbSpline
 70
8
 71
3
 72
8
 73
4
 74
0
 40
0
 40
0
 40
0
 40
0
 40
1
 40
1
 40
1
 40
1
 10
312.296140
 20
1532.191000
 30
0.0
 10
310.582240
 20
1536.998810
 30
0.0
 10
305.413840
 20
1536.723130
 30
0.0
 10
302.714820
 20
1531.679920
 30
0.0
  0
SPLINE
  5
3d5
100
AcDbEntity
  8
Ebene_1
 62
1
100
AcDbSpline
 70
8
 71
3
 72
8
 73
4
 74
0
 40
0
 40
0
 40
0
 40
0
 40
1
 40
1
 40
1
 40
1
 10
302.714820
 20
1531.679920
 30
0.0
 10
301.511280
 20
1529.431100
 30
0.0
 10
297.955680
 20
1525.589060
 30
0.0
 10
296.308610
 20
1525.589060
 30
0.0
  0
SPLINE
  5
3d6
100
AcDbEntity
  8
Ebene_1
 62
1
100
AcDbSpline
 70
8
 71
3
 72
8
 73
4
 74
0
 40
0
 40
0
 40
0
 40
0
 40
1
 40
1
 40
1
 40
1
 10
296.308610
 20
1525.589060
 30
0.0
 10
292.642910
 20
1525.589060
 30
0.0
 10
292.973810
 20
1527.991020
 30
0.0
 10
296.714110
 20
1538.592040
 30
0.0
  0
SPLINE
  5
3d7
100
AcDbEntity
  8
Ebene_1
 62
1
100
AcDbSpline
 70
8
 71
3
 72
8
 73
4
 74
0
 40
0
 40
0
 40
0
 40
0
 40
1
 40
1
 40
1
 40
1
 10
296.714110
 20
1538.592040
 30
0.0
 10
298.400730
 20
1543.372420
 30
0.0
 10
300.670470
 20
1548.718660
 30
0.0
 10
300.670470
 20
1551.424450
 30
0.0
  0
SPLINE
  5
3d8
100
AcDbEntity
  8
Ebene_1
 62
1
100
AcDbSpline
 70
8
 71
3
 72
8
 73
4
 74
0
 40
0
 40
0
 40
0
 40
0
 40
1
 40
1
 40
1
 40
1
 10
300.670470
 20
1551.424450
 30
0.0
 10
300.670470
 20
1554.130230
 30
0.0
 10
302.075590
 20
1559.706720
 30
0.0
 10
303.792760
 20
1563.816460
 30
0.0
  0
SPLINE
  5
3d9
100
AcDbEntity
  8
Ebene_1
 62
1
100
AcDbSpline
 70
8
 71
3
 72
8
 73
4
 74
0
 40
0
 40
0
 40
0
 40
0
 40
1
 40
1
 40
1
 40
1
 10
303.792760
 20
1563.816460
 30
0.0
 10
305.547430
 20
1568.016000
 30
0.0
 10
306.452000
 20
1569.761570
 30
0.0
 10
307.572890
 20
1569.790770
 30
0.0
  0
LWPOLYLINE
  5
3da
100
AcDbEntity
  8
Ebene_1
 62
1
100
AcDbPolyline
 90
1
 70
1
 10
264.624420
 20
1591.252610
 30
0.0
  0
SPLINE
  5
3db
100
AcDbEntity
  8
Ebene_1
 62
1
100
AcDbSpline
 70
8
 71
3
 72
8
 73
4
 74
0
 40
0
 40
0
 40
0
 40
0
 40
1
 40
1
 40
1
 40
1
 10
394.766070
 20
1551.084910
 30
0.0
 10
387.517180
 20
1553.385610
 30
0.0
 10
382.019170
 20
1562.494370
 30
0.0
 10
383.408620
 20
1569.900820
 30
0.0
  0
SPLINE
  5
3dc
100
AcDbEntity
  8
Ebene_1
 62
1
100
AcDbSpline
 70
8
 71
3
 72
8
 73
4
 74
0
 40
0
 40
0
 40
0
 40
0
 40
1
 40
1
 40
1
 40
1
 10
383.408620
 20
1569.900820
 30
0.0
 10
384.198080
 20
1574.109000
 30
0.0
 10
383.500720
 20
1578.773890
 30
0.0
 10
381.505890
 20
1582.631300
 30
0.0
  0
SPLINE
  5
3dd
100
AcDbEntity
  8
Ebene_1
 62
1
100
AcDbSpline
 70
8
 71
3
 72
8
 73
4
 74
0
 40
0
 40
0
 40
0
 40
0
 40
1
 40
1
 40
1
 40
1
 10
381.505890
 20
1582.631300
 30
0.0
 10
378.144820
 20
1589.318070
 30
0.0
 10
380.982650
 20
1609.229020
 30
0.0
 10
386.191910
 20
1590.777060
 30
0.0
  0
SPLINE
  5
3de
100
AcDbEntity
  8
Ebene_1
 62
1
100
AcDbSpline
 70
8
 71
3
 72
8
 73
4
 74
0
 40
0
 40
0
 40
0
 40
0
 40
1
 40
1
 40
1
 40
1
 10
386.191910
 20
1590.777060
 30
0.0
 10
387.505060
 20
1585.088170
 30
0.0
 10
388.579360
 20
1576.889570
 30
0.0
 10
388.579360
 20
1572.558020
 30
0.0
  0
SPLINE
  5
3df
100
AcDbEntity
  8
Ebene_1
 62
1
100
AcDbSpline
 70
8
 71
3
 72
8
 73
4
 74
0
 40
0
 40
0
 40
0
 40
0
 40
1
 40
1
 40
1
 40
1
 10
388.579360
 20
1572.558020
 30
0.0
 10
388.579360
 20
1565.257200
 30
0.0
 10
389.679260
 20
1555.142540
 30
0.0
 10
393.842090
 20
1555.142540
 30
0.0
  0
SPLINE
  5
3e0
100
AcDbEntity
  8
Ebene_1
 62
1
100
AcDbSpline
 70
8
 71
3
 72
8
 73
4
 74
0
 40
0
 40
0
 40
0
 40
0
 40
1
 40
1
 40
1
 40
1
 10
393.842090
 20
1555.142540
 30
0.0
 10
396.092110
 20
1555.142540
 30
0.0
 10
402.824890
 20
1576.060960
 30
0.0
 10
404.329820
 20
1593.465270
 30
0.0
  0
SPLINE
  5
3e1
100
AcDbEntity
  8
Ebene_1
 62
1
100
AcDbSpline
 70
8
 71
3
 72
8
 73
4
 74
0
 40
0
 40
0
 40
0
 40
0
 40
1
 40
1
 40
1
 40
1
 10
404.329820
 20
1593.465270
 30
0.0
 10
405.897120
 20
1611.590529
 30
0.0
 10
397.714670
 20
1652.299404
 30
0.0
 10
392.504190
 20
1652.299404
 30
0.0
  0
SPLINE
  5
3e2
100
AcDbEntity
  8
Ebene_1
 62
1
100
AcDbSpline
 70
8
 71
3
 72
8
 73
4
 74
0
 40
0
 40
0
 40
0
 40
0
 40
1
 40
1
 40
1
 40
1
 10
392.504190
 20
1652.299404
 30
0.0
 10
391.470130
 20
1652.299404
 30
0.0
 10
390.623680
 20
1653.593808
 30
0.0
 10
390.623680
 20
1655.176231
 30
0.0
  0
SPLINE
  5
3e3
100
AcDbEntity
  8
Ebene_1
 62
1
100
AcDbSpline
 70
8
 71
3
 72
8
 73
4
 74
0
 40
0
 40
0
 40
0
 40
0
 40
1
 40
1
 40
1
 40
1
 10
390.623680
 20
1655.176231
 30
0.0
 10
390.623680
 20
1659.038579
 30
0.0
 10
371.389280
 20
1676.131675
 30
0.0
 10
361.185170
 20
1681.337425
 30
0.0
  0
SPLINE
  5
3e4
100
AcDbEntity
  8
Ebene_1
 62
1
100
AcDbSpline
 70
8
 71
3
 72
8
 73
4
 74
0
 40
0
 40
0
 40
0
 40
0
 40
1
 40
1
 40
1
 40
1
 10
361.185170
 20
1681.337425
 30
0.0
 10
344.938110
 20
1689.626072
 30
0.0
 10
330.237790
 20
1693.486741
 30
0.0
 10
310.505560
 20
1694.647236
 30
0.0
  0
SPLINE
  5
3e5
100
AcDbEntity
  8
Ebene_1
 62
1
100
AcDbSpline
 70
8
 71
3
 72
8
 73
4
 74
0
 40
0
 40
0
 40
0
 40
0
 40
1
 40
1
 40
1
 40
1
 10
310.505560
 20
1694.647236
 30
0.0
 10
306.674010
 20
1694.872578
 30
0.0
 10
302.912350
 20
1694.969082
 30
0.0
 10
299.262310
 20
1694.946443
 30
0.0
  0
SPLINE
  5
3e6
100
AcDbEntity
  8
Ebene_1
 62
1
100
AcDbSpline
 70
8
 71
3
 72
8
 73
4
 74
0
 40
0
 40
0
 40
0
 40
0
 40
1
 40
1
 40
1
 40
1
 10
299.262310
 20
1694.946443
 30
0.0
 10
244.074020
 20
1694.127021
 30
0.0
 10
232.813620
 20
1669.341631
 30
0.0
 10
222.031370
 20
1649.223136
 30
0.0
  0
SPLINE
  5
3e7
100
AcDbEntity
  8
Ebene_1
 62
1
100
AcDbSpline
 70
8
 71
3
 72
8
 73
4
 74
0
 40
0
 40
0
 40
0
 40
0
 40
1
 40
1
 40
1
 40
1
 10
222.031370
 20
1649.223136
 30
0.0
 10
216.076130
 20
1637.422248
 30
0.0
 10
215.953830
 20
1636.529248
 30
0.0
 10
215.148070
 20
1599.067541
 30
0.0
  0
SPLINE
  5
3e8
100
AcDbEntity
  8
Ebene_1
 62
1
100
AcDbSpline
 70
8
 71
3
 72
8
 73
4
 74
0
 40
0
 40
0
 40
0
 40
0
 40
1
 40
1
 40
1
 40
1
 10
215.148070
 20
1599.067541
 30
0.0
 10
214.564510
 20
1571.936570
 30
0.0
 10
215.034610
 20
1559.605750
 30
0.0
 10
216.776910
 20
1556.350250
 30
0.0
  0
SPLINE
  5
3e9
100
AcDbEntity
  8
Ebene_1
 62
1
100
AcDbSpline
 70
8
 71
3
 72
8
 73
4
 74
0
 40
0
 40
0
 40
0
 40
0
 40
1
 40
1
 40
1
 40
1
 10
216.776910
 20
1556.350250
 30
0.0
 10
218.124030
 20
1553.833120
 30
0.0
 10
224.791870
 20
1555.892860
 30
0.0
 10
225.340210
 20
1556.441250
 30
0.0
  0
SPLINE
  5
3ea
100
AcDbEntity
  8
Ebene_1
 62
1
100
AcDbSpline
 70
8
 71
3
 72
8
 73
4
 74
0
 40
0
 40
0
 40
0
 40
0
 40
1
 40
1
 40
1
 40
1
 10
225.340210
 20
1556.441250
 30
0.0
 10
225.888550
 20
1556.989600
 30
0.0
 10
225.250710
 20
1565.233800
 30
0.0
 10
226.233700
 20
1575.712940
 30
0.0
  0
SPLINE
  5
3eb
100
AcDbEntity
  8
Ebene_1
 62
1
100
AcDbSpline
 70
8
 71
3
 72
8
 73
4
 74
0
 40
0
 40
0
 40
0
 40
0
 40
1
 40
1
 40
1
 40
1
 10
226.233700
 20
1575.712940
 30
0.0
 10
227.572160
 20
1589.981610
 30
0.0
 10
225.685090
 20
1592.524980
 30
0.0
 10
228.340030
 20
1594.466320
 30
0.0
  0
SPLINE
  5
3ec
100
AcDbEntity
  8
Ebene_1
 62
1
100
AcDbSpline
 70
8
 71
3
 72
8
 73
4
 74
0
 40
0
 40
0
 40
0
 40
0
 40
1
 40
1
 40
1
 40
1
 10
228.340030
 20
1594.466320
 30
0.0
 10
233.002900
 20
1597.875910
 30
0.0
 10
233.763030
 20
1596.788090
 30
0.0
 10
231.280420
 20
1590.258310
 30
0.0
  0
SPLINE
  5
3ed
100
AcDbEntity
  8
Ebene_1
 62
1
100
AcDbSpline
 70
8
 71
3
 72
8
 73
4
 74
0
 40
0
 40
0
 40
0
 40
0
 40
1
 40
1
 40
1
 40
1
 10
231.280420
 20
1590.258310
 30
0.0
 10
227.426430
 20
1579.043650
 30
0.0
 10
233.014630
 20
1565.177000
 30
0.0
 10
227.299270
 20
1553.892570
 30
0.0
  0
LWPOLYLINE
  5
3ee
100
AcDbEntity
  8
Ebene_1
 62
1
100
AcDbPolyline
 90
1
 70
1
 10
307.572890
 20
1569.790770
 30
0.0
  0
SPLINE
  5
3ef
100
AcDbEntity
  8
Ebene_1
 62
1
100
AcDbSpline
 70
8
 71
3
 72
8
 73
4
 74
0
 40
0
 40
0
 40
0
 40
0
 40
1
 40
1
 40
1
 40
1
 10
219.990150
 20
1549.018970
 30
0.0
 10
208.311080
 20
1537.911610
 30
0.0
 10
216.622640
 20
1520.082090
 30
0.0
 10
227.885150
 20
1515.414210
 30
0.0
  0
SPLINE
  5
3f0
100
AcDbEntity
  8
Ebene_1
 62
1
100
AcDbSpline
 70
8
 71
3
 72
8
 73
4
 74
0
 40
0
 40
0
 40
0
 40
0
 40
1
 40
1
 40
1
 40
1
 10
227.885150
 20
1515.414210
 30
0.0
 10
227.524400
 20
1513.700510
 30
0.0
 10
233.339500
 20
1507.754960
 30
0.0
 10
236.201960
 20
1502.870560
 30
0.0
  0
SPLINE
  5
3f1
100
AcDbEntity
  8
Ebene_1
 62
1
100
AcDbSpline
 70
8
 71
3
 72
8
 73
4
 74
0
 40
0
 40
0
 40
0
 40
0
 40
1
 40
1
 40
1
 40
1
 10
236.201960
 20
1502.870560
 30
0.0
 10
243.841480
 20
1489.834680
 30
0.0
 10
243.982950
 20
1476.572610
 30
0.0
 10
240.900500
 20
1465.047720
 30
0.0
  0
SPLINE
  5
3f2
100
AcDbEntity
  8
Ebene_1
 62
1
100
AcDbSpline
 70
8
 71
3
 72
8
 73
4
 74
0
 40
0
 40
0
 40
0
 40
0
 40
1
 40
1
 40
1
 40
1
 10
240.900500
 20
1465.047720
 30
0.0
 10
238.476260
 20
1455.983740
 30
0.0
 10
238.582290
 20
1455.425840
 30
0.0
 10
243.454870
 20
1451.613920
 30
0.0
  0
SPLINE
  5
3f3
100
AcDbEntity
  8
Ebene_1
 62
1
100
AcDbSpline
 70
8
 71
3
 72
8
 73
4
 74
0
 40
0
 40
0
 40
0
 40
0
 40
1
 40
1
 40
1
 40
1
 10
243.454870
 20
1451.613920
 30
0.0
 10
256.561290
 20
1441.360450
 30
0.0
 10
282.362230
 20
1425.458470
 30
0.0
 10
288.611800
 20
1423.782030
 30
0.0
  0
SPLINE
  5
3f4
100
AcDbEntity
  8
Ebene_1
 62
1
100
AcDbSpline
 70
8
 71
3
 72
8
 73
4
 74
0
 40
0
 40
0
 40
0
 40
0
 40
1
 40
1
 40
1
 40
1
 10
288.611800
 20
1423.782030
 30
0.0
 10
296.821380
 20
1421.579820
 30
0.0
 10
327.464650
 20
1422.801950
 30
0.0
 10
336.983010
 20
1425.711110
 30
0.0
  0
SPLINE
  5
3f5
100
AcDbEntity
  8
Ebene_1
 62
1
100
AcDbSpline
 70
8
 71
3
 72
8
 73
4
 74
0
 40
0
 40
0
 40
0
 40
0
 40
1
 40
1
 40
1
 40
1
 10
336.983010
 20
1425.711110
 30
0.0
 10
340.650790
 20
1426.832130
 30
0.0
 10
346.630700
 20
1431.380910
 30
0.0
 10
350.271600
 20
1435.819530
 30
0.0
  0
SPLINE
  5
3f6
100
AcDbEntity
  8
Ebene_1
 62
1
100
AcDbSpline
 70
8
 71
3
 72
8
 73
4
 74
0
 40
0
 40
0
 40
0
 40
0
 40
1
 40
1
 40
1
 40
1
 10
350.271600
 20
1435.819530
 30
0.0
 10
353.912500
 20
1440.258150
 30
0.0
 10
361.380770
 20
1447.166910
 30
0.0
 10
366.867490
 20
1451.172600
 30
0.0
  0
LWPOLYLINE
  5
3f7
100
AcDbEntity
  8
Ebene_1
 62
1
100
AcDbPolyline
 90
2
 70
0
 10
227.299270
 20
1553.892570
 30
0.0
 10
219.990150
 20
1549.018970
 30
0.0
  0
SPLINE
  5
3f8
100
AcDbEntity
  8
Ebene_1
 62
1
100
AcDbSpline
 70
8
 71
3
 72
8
 73
4
 74
0
 40
0
 40
0
 40
0
 40
0
 40
1
 40
1
 40
1
 40
1
 10
375.479370
 20
1473.508190
 30
0.0
 10
374.203650
 20
1487.586170
 30
0.0
 10
368.853880
 20
1488.097970
 30
0.0
 10
374.661930
 20
1499.603610
 30
0.0
  0
SPLINE
  5
3f9
100
AcDbEntity
  8
Ebene_1
 62
1
100
AcDbSpline
 70
8
 71
3
 72
8
 73
4
 74
0
 40
0
 40
0
 40
0
 40
0
 40
1
 40
1
 40
1
 40
1
 10
374.661930
 20
1499.603610
 30
0.0
 10
378.077360
 20
1506.369600
 30
0.0
 10
381.186500
 20
1515.844160
 30
0.0
 10
381.079100
 20
1518.078140
 30
0.0
  0
SPLINE
  5
3fa
100
AcDbEntity
  8
Ebene_1
 62
1
100
AcDbSpline
 70
8
 71
3
 72
8
 73
4
 74
0
 40
0
 40
0
 40
0
 40
0
 40
1
 40
1
 40
1
 40
1
 10
381.079100
 20
1518.078140
 30
0.0
 10
397.458400
 20
1525.692060
 30
0.0
 10
403.305590
 20
1544.380850
 30
0.0
 10
394.766070
 20
1551.084910
 30
0.0
  0
LWPOLYLINE
  5
3fb
100
AcDbEntity
  8
Ebene_1
 62
1
100
AcDbPolyline
 90
3
 70
0
 10
366.867490
 20
1451.172600
 30
0.0
 10
376.843110
 20
1458.455880
 30
0.0
 10
375.479370
 20
1473.508190
 30
0.0
  0
SPLINE
  5
3fc
100
AcDbEntity
  8
Ebene_1
 62
1
100
AcDbSpline
 70
8
 71
3
 72
8
 73
4
 74
0
 40
0
 40
0
 40
0
 40
0
 40
1
 40
1
 40
1
 40
1
 10
310.102310
 20
1465.748960
 30
0.0
 10
309.734560
 20
1468.684300
 30
0.0
 10
308.688570
 20
1470.258380
 30
0.0
 10
306.009140
 20
1470.258380
 30
0.0
  0
SPLINE
  5
3fd
100
AcDbEntity
  8
Ebene_1
 62
1
100
AcDbSpline
 70
8
 71
3
 72
8
 73
4
 74
0
 40
0
 40
0
 40
0
 40
0
 40
1
 40
1
 40
1
 40
1
 10
306.009140
 20
1470.258380
 30
0.0
 10
301.427690
 20
1470.397480
 30
0.0
 10
302.432990
 20
1462.637210
 30
0.0
 10
302.020520
 20
1460.792610
 30
0.0
  0
SPLINE
  5
3fe
100
AcDbEntity
  8
Ebene_1
 62
1
100
AcDbSpline
 70
8
 71
3
 72
8
 73
4
 74
0
 40
0
 40
0
 40
0
 40
0
 40
1
 40
1
 40
1
 40
1
 10
302.020520
 20
1460.792610
 30
0.0
 10
300.052400
 20
1461.644000
 30
0.0
 10
302.278180
 20
1463.380430
 30
0.0
 10
301.674570
 20
1467.512690
 30
0.0
  0
SPLINE
  5
3ff
100
AcDbEntity
  8
Ebene_1
 62
1
100
AcDbSpline
 70
8
 71
3
 72
8
 73
4
 74
0
 40
0
 40
0
 40
0
 40
0
 40
1
 40
1
 40
1
 40
1
 10
301.674570
 20
1467.512690
 30
0.0
 10
301.670570
 20
1470.805630
 30
0.0
 10
299.960230
 20
1470.641430
 30
0.0
 10
297.428830
 20
1470.651520
 30
0.0
  0
SPLINE
  5
400
100
AcDbEntity
  8
Ebene_1
 62
1
100
AcDbSpline
 70
8
 71
3
 72
8
 73
4
 74
0
 40
0
 40
0
 40
0
 40
0
 40
1
 40
1
 40
1
 40
1
 10
297.428830
 20
1470.651520
 30
0.0
 10
294.323320
 20
1470.651520
 30
0.0
 10
292.770200
 20
1468.680340
 30
0.0
 10
292.770200
 20
1464.737150
 30
0.0
  0
SPLINE
  5
401
100
AcDbEntity
  8
Ebene_1
 62
1
100
AcDbSpline
 70
8
 71
3
 72
8
 73
4
 74
0
 40
0
 40
0
 40
0
 40
0
 40
1
 40
1
 40
1
 40
1
 10
292.770200
 20
1464.737150
 30
0.0
 10
292.770200
 20
1463.085290
 30
0.0
 10
292.651180
 20
1461.645700
 30
0.0
 10
291.989650
 20
1461.227870
 30
0.0
  0
SPLINE
  5
402
100
AcDbEntity
  8
Ebene_1
 62
1
100
AcDbSpline
 70
8
 71
3
 72
8
 73
4
 74
0
 40
0
 40
0
 40
0
 40
0
 40
1
 40
1
 40
1
 40
1
 10
291.989650
 20
1461.227870
 30
0.0
 10
291.361410
 20
1461.044150
 30
0.0
 10
291.317270
 20
1462.845540
 30
0.0
 10
291.809540
 20
1464.546460
 30
0.0
  0
SPLINE
  5
403
100
AcDbEntity
  8
Ebene_1
 62
1
100
AcDbSpline
 70
8
 71
3
 72
8
 73
4
 74
0
 40
0
 40
0
 40
0
 40
0
 40
1
 40
1
 40
1
 40
1
 10
291.809540
 20
1464.546460
 30
0.0
 10
293.367710
 20
1469.930360
 30
0.0
 10
294.246650
 20
1471.939810
 30
0.0
 10
289.109450
 20
1471.939810
 30
0.0
  0
SPLINE
  5
404
100
AcDbEntity
  8
Ebene_1
 62
1
100
AcDbSpline
 70
8
 71
3
 72
8
 73
4
 74
0
 40
0
 40
0
 40
0
 40
0
 40
1
 40
1
 40
1
 40
1
 10
289.109450
 20
1471.939810
 30
0.0
 10
286.003930
 20
1471.939810
 30
0.0
 10
284.391310
 20
1469.870310
 30
0.0
 10
284.391310
 20
1465.927120
 30
0.0
  0
SPLINE
  5
405
100
AcDbEntity
  8
Ebene_1
 62
1
100
AcDbSpline
 70
8
 71
3
 72
8
 73
4
 74
0
 40
0
 40
0
 40
0
 40
0
 40
1
 40
1
 40
1
 40
1
 10
284.391310
 20
1465.927120
 30
0.0
 10
284.391310
 20
1464.010920
 30
0.0
 10
283.407700
 20
1460.522030
 30
0.0
 10
283.428820
 20
1462.014040
 30
0.0
  0
SPLINE
  5
406
100
AcDbEntity
  8
Ebene_1
 62
1
100
AcDbSpline
 70
8
 71
3
 72
8
 73
4
 74
0
 40
0
 40
0
 40
0
 40
0
 40
1
 40
1
 40
1
 40
1
 10
283.428820
 20
1462.014040
 30
0.0
 10
283.461920
 20
1464.352460
 30
0.0
 10
284.315420
 20
1467.225230
 30
0.0
 10
284.315420
 20
1470.469100
 30
0.0
  0
SPLINE
  5
407
100
AcDbEntity
  8
Ebene_1
 62
1
100
AcDbSpline
 70
8
 71
3
 72
8
 73
4
 74
0
 40
0
 40
0
 40
0
 40
0
 40
1
 40
1
 40
1
 40
1
 10
284.315420
 20
1470.469100
 30
0.0
 10
284.315420
 20
1474.897570
 30
0.0
 10
281.132910
 20
1475.837980
 30
0.0
 10
279.536390
 20
1471.881420
 30
0.0
  0
SPLINE
  5
408
100
AcDbEntity
  8
Ebene_1
 62
1
100
AcDbSpline
 70
8
 71
3
 72
8
 73
4
 74
0
 40
0
 40
0
 40
0
 40
0
 40
1
 40
1
 40
1
 40
1
 10
279.536390
 20
1471.881420
 30
0.0
 10
278.920370
 20
1470.354790
 30
0.0
 10
278.440090
 20
1470.766290
 30
0.0
 10
278.343690
 20
1472.903580
 30
0.0
  0
SPLINE
  5
409
100
AcDbEntity
  8
Ebene_1
 62
1
100
AcDbSpline
 70
8
 71
3
 72
8
 73
4
 74
0
 40
0
 40
0
 40
0
 40
0
 40
1
 40
1
 40
1
 40
1
 10
278.343690
 20
1472.903580
 30
0.0
 10
278.254990
 20
1474.871290
 30
0.0
 10
276.877550
 20
1476.481650
 30
0.0
 10
275.282900
 20
1476.481650
 30
0.0
  0
SPLINE
  5
40a
100
AcDbEntity
  8
Ebene_1
 62
1
100
AcDbSpline
 70
8
 71
3
 72
8
 73
4
 74
0
 40
0
 40
0
 40
0
 40
0
 40
1
 40
1
 40
1
 40
1
 10
275.282900
 20
1476.481650
 30
0.0
 10
273.688230
 20
1476.481650
 30
0.0
 10
270.728380
 20
1477.116700
 30
0.0
 10
268.705520
 20
1477.892940
 30
0.0
  0
SPLINE
  5
40b
100
AcDbEntity
  8
Ebene_1
 62
1
100
AcDbSpline
 70
8
 71
3
 72
8
 73
4
 74
0
 40
0
 40
0
 40
0
 40
0
 40
1
 40
1
 40
1
 40
1
 10
268.705520
 20
1477.892940
 30
0.0
 10
267.888430
 20
1478.206480
 30
0.0
 10
267.271240
 20
1478.428700
 30
0.0
 10
266.846210
 20
1478.540960
 30
0.0
  0
SPLINE
  5
40c
100
AcDbEntity
  8
Ebene_1
 62
1
100
AcDbSpline
 70
8
 71
3
 72
8
 73
4
 74
0
 40
0
 40
0
 40
0
 40
0
 40
1
 40
1
 40
1
 40
1
 10
266.846210
 20
1478.540960
 30
0.0
 10
265.750000
 20
1478.811380
 30
0.0
 10
265.252550
 20
1476.457170
 30
0.0
 10
264.267030
 20
1474.411490
 30
0.0
  0
SPLINE
  5
40d
100
AcDbEntity
  8
Ebene_1
 62
1
100
AcDbSpline
 70
8
 71
3
 72
8
 73
4
 74
0
 40
0
 40
0
 40
0
 40
0
 40
1
 40
1
 40
1
 40
1
 10
264.267030
 20
1474.411490
 30
0.0
 10
255.980780
 20
1481.907750
 30
0.0
 10
249.926470
 20
1493.231090
 30
0.0
 10
248.774050
 20
1499.838250
 30
0.0
  0
SPLINE
  5
40e
100
AcDbEntity
  8
Ebene_1
 62
1
100
AcDbSpline
 70
8
 71
3
 72
8
 73
4
 74
0
 40
0
 40
0
 40
0
 40
0
 40
1
 40
1
 40
1
 40
1
 10
248.774050
 20
1499.838250
 30
0.0
 10
247.713890
 20
1505.916280
 30
0.0
 10
247.224190
 20
1507.358750
 30
0.0
 10
247.691270
 20
1514.007500
 30
0.0
  0
SPLINE
  5
40f
100
AcDbEntity
  8
Ebene_1
 62
1
100
AcDbSpline
 70
8
 71
3
 72
8
 73
4
 74
0
 40
0
 40
0
 40
0
 40
0
 40
1
 40
1
 40
1
 40
1
 10
247.691270
 20
1514.007500
 30
0.0
 10
263.817090
 20
1516.700380
 30
0.0
 10
262.282510
 20
1493.489460
 30
0.0
 10
266.363030
 20
1492.484430
 30
0.0
  0
SPLINE
  5
410
100
AcDbEntity
  8
Ebene_1
 62
1
100
AcDbSpline
 70
8
 71
3
 72
8
 73
4
 74
0
 40
0
 40
0
 40
0
 40
0
 40
1
 40
1
 40
1
 40
1
 10
266.363030
 20
1492.484430
 30
0.0
 10
266.884760
 20
1491.512630
 30
0.0
 10
268.038980
 20
1490.440710
 30
0.0
 10
269.779360
 20
1489.644810
 30
0.0
  0
SPLINE
  5
411
100
AcDbEntity
  8
Ebene_1
 62
1
100
AcDbSpline
 70
8
 71
3
 72
8
 73
4
 74
0
 40
0
 40
0
 40
0
 40
0
 40
1
 40
1
 40
1
 40
1
 10
269.779360
 20
1489.644810
 30
0.0
 10
272.122410
 20
1488.573310
 30
0.0
 10
274.584550
 20
1487.435460
 30
0.0
 10
275.250860
 20
1487.115770
 30
0.0
  0
SPLINE
  5
412
100
AcDbEntity
  8
Ebene_1
 62
1
100
AcDbSpline
 70
8
 71
3
 72
8
 73
4
 74
0
 40
0
 40
0
 40
0
 40
0
 40
1
 40
1
 40
1
 40
1
 10
275.250860
 20
1487.115770
 30
0.0
 10
275.917200
 20
1486.796080
 30
0.0
 10
277.349520
 20
1487.816460
 30
0.0
 10
278.433090
 20
1489.383330
 30
0.0
  0
SPLINE
  5
413
100
AcDbEntity
  8
Ebene_1
 62
1
100
AcDbSpline
 70
8
 71
3
 72
8
 73
4
 74
0
 40
0
 40
0
 40
0
 40
0
 40
1
 40
1
 40
1
 40
1
 10
278.433090
 20
1489.383330
 30
0.0
 10
280.017060
 20
1491.673720
 30
0.0
 10
280.460930
 20
1491.334480
 30
0.0
 10
280.914940
 20
1494.115270
 30
0.0
  0
SPLINE
  5
414
100
AcDbEntity
  8
Ebene_1
 62
1
100
AcDbSpline
 70
8
 71
3
 72
8
 73
4
 74
0
 40
0
 40
0
 40
0
 40
0
 40
1
 40
1
 40
1
 40
1
 10
280.914940
 20
1494.115270
 30
0.0
 10
279.068880
 20
1486.962240
 30
0.0
 10
279.725610
 20
1483.953710
 30
0.0
 10
282.979070
 20
1483.953710
 30
0.0
  0
SPLINE
  5
415
100
AcDbEntity
  8
Ebene_1
 62
1
100
AcDbSpline
 70
8
 71
3
 72
8
 73
4
 74
0
 40
0
 40
0
 40
0
 40
0
 40
1
 40
1
 40
1
 40
1
 10
282.979070
 20
1483.953710
 30
0.0
 10
285.120810
 20
1483.953710
 30
0.0
 10
286.045550
 20
1486.111430
 30
0.0
 10
286.123900
 20
1491.110370
 30
0.0
  0
SPLINE
  5
416
100
AcDbEntity
  8
Ebene_1
 62
1
100
AcDbSpline
 70
8
 71
3
 72
8
 73
4
 74
0
 40
0
 40
0
 40
0
 40
0
 40
1
 40
1
 40
1
 40
1
 10
286.123900
 20
1491.110370
 30
0.0
 10
285.571320
 20
1487.124120
 30
0.0
 10
286.753080
 20
1483.314930
 30
0.0
 10
289.078960
 20
1482.965650
 30
0.0
  0
SPLINE
  5
417
100
AcDbEntity
  8
Ebene_1
 62
1
100
AcDbSpline
 70
8
 71
3
 72
8
 73
4
 74
0
 40
0
 40
0
 40
0
 40
0
 40
1
 40
1
 40
1
 40
1
 10
289.078960
 20
1482.965650
 30
0.0
 10
292.926460
 20
1482.387890
 30
0.0
 10
293.445350
 20
1484.787180
 30
0.0
 10
293.919780
 20
1491.636630
 30
0.0
  0
SPLINE
  5
418
100
AcDbEntity
  8
Ebene_1
 62
1
100
AcDbSpline
 70
8
 71
3
 72
8
 73
4
 74
0
 40
0
 40
0
 40
0
 40
0
 40
1
 40
1
 40
1
 40
1
 10
293.919780
 20
1491.636630
 30
0.0
 10
293.515280
 20
1485.306250
 30
0.0
 10
293.487990
 20
1479.844330
 30
0.0
 10
298.849940
 20
1479.844330
 30
0.0
  0
SPLINE
  5
419
100
AcDbEntity
  8
Ebene_1
 62
1
100
AcDbSpline
 70
8
 71
3
 72
8
 73
4
 74
0
 40
0
 40
0
 40
0
 40
0
 40
1
 40
1
 40
1
 40
1
 10
298.849940
 20
1479.844330
 30
0.0
 10
303.483330
 20
1479.844330
 30
0.0
 10
304.349420
 20
1480.050040
 30
0.0
 10
303.955570
 20
1486.216550
 30
0.0
  0
SPLINE
  5
41a
100
AcDbEntity
  8
Ebene_1
 62
1
100
AcDbSpline
 70
8
 71
3
 72
8
 73
4
 74
0
 40
0
 40
0
 40
0
 40
0
 40
1
 40
1
 40
1
 40
1
 10
303.955570
 20
1486.216550
 30
0.0
 10
303.163410
 20
1493.381290
 30
0.0
 10
304.354760
 20
1492.110960
 30
0.0
 10
304.134040
 20
1486.373960
 30
0.0
  0
SPLINE
  5
41b
100
AcDbEntity
  8
Ebene_1
 62
1
100
AcDbSpline
 70
8
 71
3
 72
8
 73
4
 74
0
 40
0
 40
0
 40
0
 40
0
 40
1
 40
1
 40
1
 40
1
 10
304.134040
 20
1486.373960
 30
0.0
 10
303.738160
 20
1480.018270
 30
0.0
 10
303.933350
 20
1479.477960
 30
0.0
 10
309.295290
 20
1479.477960
 30
0.0
  0
SPLINE
  5
41c
100
AcDbEntity
  8
Ebene_1
 62
1
100
AcDbSpline
 70
8
 71
3
 72
8
 73
4
 74
0
 40
0
 40
0
 40
0
 40
0
 40
1
 40
1
 40
1
 40
1
 10
309.295290
 20
1479.477960
 30
0.0
 10
313.928690
 20
1479.477960
 30
0.0
 10
314.600110
 20
1484.244290
 30
0.0
 10
314.185030
 20
1490.488700
 30
0.0
  0
SPLINE
  5
41d
100
AcDbEntity
  8
Ebene_1
 62
1
100
AcDbSpline
 70
8
 71
3
 72
8
 73
4
 74
0
 40
0
 40
0
 40
0
 40
0
 40
1
 40
1
 40
1
 40
1
 10
314.185030
 20
1490.488700
 30
0.0
 10
314.202230
 20
1486.529390
 30
0.0
 10
315.564360
 20
1482.111930
 30
0.0
 10
317.915960
 20
1482.152780
 30
0.0
  0
SPLINE
  5
41e
100
AcDbEntity
  8
Ebene_1
 62
1
100
AcDbSpline
 70
8
 71
3
 72
8
 73
4
 74
0
 40
0
 40
0
 40
0
 40
0
 40
1
 40
1
 40
1
 40
1
 10
317.915960
 20
1482.152780
 30
0.0
 10
321.806010
 20
1482.220380
 30
0.0
 10
321.568160
 20
1486.086750
 30
0.0
 10
321.145000
 20
1492.644460
 30
0.0
  0
SPLINE
  5
41f
100
AcDbEntity
  8
Ebene_1
 62
1
100
AcDbSpline
 70
8
 71
3
 72
8
 73
4
 74
0
 40
0
 40
0
 40
0
 40
0
 40
1
 40
1
 40
1
 40
1
 10
321.145000
 20
1492.644460
 30
0.0
 10
321.174400
 20
1488.553440
 30
0.0
 10
323.002910
 20
1483.756200
 30
0.0
 10
325.047300
 20
1483.756200
 30
0.0
  0
SPLINE
  5
420
100
AcDbEntity
  8
Ebene_1
 62
1
100
AcDbSpline
 70
8
 71
3
 72
8
 73
4
 74
0
 40
0
 40
0
 40
0
 40
0
 40
1
 40
1
 40
1
 40
1
 10
325.047300
 20
1483.756200
 30
0.0
 10
326.733920
 20
1483.756200
 30
0.0
 10
328.546380
 20
1490.802400
 30
0.0
 10
328.500370
 20
1492.421580
 30
0.0
  0
SPLINE
  5
421
100
AcDbEntity
  8
Ebene_1
 62
1
100
AcDbSpline
 70
8
 71
3
 72
8
 73
4
 74
0
 40
0
 40
0
 40
0
 40
0
 40
1
 40
1
 40
1
 40
1
 10
328.500370
 20
1492.421580
 30
0.0
 10
328.454370
 20
1486.194720
 30
0.0
 10
328.807340
 20
1485.862920
 30
0.0
 10
334.056080
 20
1487.180280
 30
0.0
  0
SPLINE
  5
422
100
AcDbEntity
  8
Ebene_1
 62
1
100
AcDbSpline
 70
8
 71
3
 72
8
 73
4
 74
0
 40
0
 40
0
 40
0
 40
0
 40
1
 40
1
 40
1
 40
1
 10
334.056080
 20
1487.180280
 30
0.0
 10
337.136950
 20
1487.953530
 30
0.0
 10
340.342840
 20
1489.663180
 30
0.0
 10
341.180190
 20
1490.979530
 30
0.0
  0
SPLINE
  5
423
100
AcDbEntity
  8
Ebene_1
 62
1
100
AcDbSpline
 70
8
 71
3
 72
8
 73
4
 74
0
 40
0
 40
0
 40
0
 40
0
 40
1
 40
1
 40
1
 40
1
 10
341.180190
 20
1490.979530
 30
0.0
 10
342.017560
 20
1492.295910
 30
0.0
 10
342.730710
 20
1492.452760
 30
0.0
 10
342.765110
 20
1491.328350
 30
0.0
  0
SPLINE
  5
424
100
AcDbEntity
  8
Ebene_1
 62
1
100
AcDbSpline
 70
8
 71
3
 72
8
 73
4
 74
0
 40
0
 40
0
 40
0
 40
0
 40
1
 40
1
 40
1
 40
1
 10
342.765110
 20
1491.328350
 30
0.0
 10
342.822010
 20
1489.469900
 30
0.0
 10
345.669350
 20
1493.035050
 30
0.0
 10
346.556090
 20
1495.589070
 30
0.0
  0
SPLINE
  5
425
100
AcDbEntity
  8
Ebene_1
 62
1
100
AcDbSpline
 70
8
 71
3
 72
8
 73
4
 74
0
 40
0
 40
0
 40
0
 40
0
 40
1
 40
1
 40
1
 40
1
 10
346.556090
 20
1495.589070
 30
0.0
 10
351.169310
 20
1495.864650
 30
0.0
 10
350.013120
 20
1496.767650
 30
0.0
 10
350.869640
 20
1500.180310
 30
0.0
  0
SPLINE
  5
426
100
AcDbEntity
  8
Ebene_1
 62
1
100
AcDbSpline
 70
8
 71
3
 72
8
 73
4
 74
0
 40
0
 40
0
 40
0
 40
0
 40
1
 40
1
 40
1
 40
1
 10
350.869640
 20
1500.180310
 30
0.0
 10
351.434780
 20
1502.432010
 30
0.0
 10
353.368920
 20
1509.049530
 30
0.0
 10
357.908400
 20
1513.373720
 30
0.0
  0
SPLINE
  5
427
100
AcDbEntity
  8
Ebene_1
 62
1
100
AcDbSpline
 70
8
 71
3
 72
8
 73
4
 74
0
 40
0
 40
0
 40
0
 40
0
 40
1
 40
1
 40
1
 40
1
 10
357.908400
 20
1513.373720
 30
0.0
 10
362.447880
 20
1517.697920
 30
0.0
 10
367.398430
 20
1516.463160
 30
0.0
 10
366.648650
 20
1514.327420
 30
0.0
  0
SPLINE
  5
428
100
AcDbEntity
  8
Ebene_1
 62
1
100
AcDbSpline
 70
8
 71
3
 72
8
 73
4
 74
0
 40
0
 40
0
 40
0
 40
0
 40
1
 40
1
 40
1
 40
1
 10
366.648650
 20
1514.327420
 30
0.0
 10
365.285410
 20
1510.444220
 30
0.0
 10
368.549780
 20
1506.110610
 30
0.0
 10
365.591040
 20
1500.063190
 30
0.0
  0
SPLINE
  5
429
100
AcDbEntity
  8
Ebene_1
 62
1
100
AcDbSpline
 70
8
 71
3
 72
8
 73
4
 74
0
 40
0
 40
0
 40
0
 40
0
 40
1
 40
1
 40
1
 40
1
 10
365.591040
 20
1500.063190
 30
0.0
 10
362.632330
 20
1494.015730
 30
0.0
 10
361.456570
 20
1485.413850
 30
0.0
 10
358.748610
 20
1483.639500
 30
0.0
  0
SPLINE
  5
42a
100
AcDbEntity
  8
Ebene_1
 62
1
100
AcDbSpline
 70
8
 71
3
 72
8
 73
4
 74
0
 40
0
 40
0
 40
0
 40
0
 40
1
 40
1
 40
1
 40
1
 10
358.748610
 20
1483.639500
 30
0.0
 10
356.040630
 20
1481.865180
 30
0.0
 10
348.948290
 20
1476.007840
 30
0.0
 10
348.948290
 20
1474.660900
 30
0.0
  0
SPLINE
  5
42b
100
AcDbEntity
  8
Ebene_1
 62
1
100
AcDbSpline
 70
8
 71
3
 72
8
 73
4
 74
0
 40
0
 40
0
 40
0
 40
0
 40
1
 40
1
 40
1
 40
1
 10
348.948290
 20
1474.660900
 30
0.0
 10
346.208850
 20
1471.243280
 30
0.0
 10
346.867620
 20
1475.708810
 30
0.0
 10
342.545460
 20
1474.999140
 30
0.0
  0
SPLINE
  5
42c
100
AcDbEntity
  8
Ebene_1
 62
1
100
AcDbSpline
 70
8
 71
3
 72
8
 73
4
 74
0
 40
0
 40
0
 40
0
 40
0
 40
1
 40
1
 40
1
 40
1
 10
342.545460
 20
1474.999140
 30
0.0
 10
341.831880
 20
1474.840770
 30
0.0
 10
340.829290
 20
1474.261590
 30
0.0
 10
339.564250
 20
1473.128460
 30
0.0
  0
SPLINE
  5
42d
100
AcDbEntity
  8
Ebene_1
 62
1
100
AcDbSpline
 70
8
 71
3
 72
8
 73
4
 74
0
 40
0
 40
0
 40
0
 40
0
 40
1
 40
1
 40
1
 40
1
 10
339.564250
 20
1473.128460
 30
0.0
 10
337.909290
 20
1471.646080
 30
0.0
 10
335.600730
 20
1471.070060
 30
0.0
 10
334.433810
 20
1471.848430
 30
0.0
  0
SPLINE
  5
42e
100
AcDbEntity
  8
Ebene_1
 62
1
100
AcDbSpline
 70
8
 71
3
 72
8
 73
4
 74
0
 40
0
 40
0
 40
0
 40
0
 40
1
 40
1
 40
1
 40
1
 10
334.433810
 20
1471.848430
 30
0.0
 10
332.124140
 20
1473.389050
 30
0.0
 10
331.461770
 20
1468.072200
 30
0.0
 10
333.666930
 20
1465.692220
 30
0.0
  0
SPLINE
  5
42f
100
AcDbEntity
  8
Ebene_1
 62
1
100
AcDbSpline
 70
8
 71
3
 72
8
 73
4
 74
0
 40
0
 40
0
 40
0
 40
0
 40
1
 40
1
 40
1
 40
1
 10
333.666930
 20
1465.692220
 30
0.0
 10
334.322570
 20
1464.984600
 30
0.0
 10
334.689340
 20
1464.518750
 30
0.0
 10
335.155210
 20
1464.456640
 30
0.0
  0
SPLINE
  5
430
100
AcDbEntity
  8
Ebene_1
 62
1
100
AcDbSpline
 70
8
 71
3
 72
8
 73
4
 74
0
 40
0
 40
0
 40
0
 40
0
 40
1
 40
1
 40
1
 40
1
 10
335.155210
 20
1464.456640
 30
0.0
 10
334.221780
 20
1463.963520
 30
0.0
 10
333.223090
 20
1463.537090
 30
0.0
 10
332.099590
 20
1463.170410
 30
0.0
  0
SPLINE
  5
431
100
AcDbEntity
  8
Ebene_1
 62
1
100
AcDbSpline
 70
8
 71
3
 72
8
 73
4
 74
0
 40
0
 40
0
 40
0
 40
0
 40
1
 40
1
 40
1
 40
1
 10
332.099590
 20
1463.170410
 30
0.0
 10
332.368610
 20
1464.457220
 30
0.0
 10
332.321890
 20
1466.192310
 30
0.0
 10
331.900630
 20
1467.803200
 30
0.0
  0
SPLINE
  5
432
100
AcDbEntity
  8
Ebene_1
 62
1
100
AcDbSpline
 70
8
 71
3
 72
8
 73
4
 74
0
 40
0
 40
0
 40
0
 40
0
 40
1
 40
1
 40
1
 40
1
 10
331.900630
 20
1467.803200
 30
0.0
 10
331.287570
 20
1470.147530
 30
0.0
 10
330.500920
 20
1471.282190
 30
0.0
 10
329.823240
 20
1471.438640
 30
0.0
  0
SPLINE
  5
433
100
AcDbEntity
  8
Ebene_1
 62
1
100
AcDbSpline
 70
8
 71
3
 72
8
 73
4
 74
0
 40
0
 40
0
 40
0
 40
0
 40
1
 40
1
 40
1
 40
1
 10
329.823240
 20
1471.438640
 30
0.0
 10
328.693810
 20
1471.699400
 30
0.0
 10
327.867100
 20
1469.243230
 30
0.0
 10
328.651220
 20
1465.141350
 30
0.0
  0
SPLINE
  5
434
100
AcDbEntity
  8
Ebene_1
 62
1
100
AcDbSpline
 70
8
 71
3
 72
8
 73
4
 74
0
 40
0
 40
0
 40
0
 40
0
 40
1
 40
1
 40
1
 40
1
 10
328.651220
 20
1465.141350
 30
0.0
 10
329.207860
 20
1459.180170
 30
0.0
 10
327.250150
 20
1464.155730
 30
0.0
 10
327.247170
 20
1467.752040
 30
0.0
  0
SPLINE
  5
435
100
AcDbEntity
  8
Ebene_1
 62
1
100
AcDbSpline
 70
8
 71
3
 72
8
 73
4
 74
0
 40
0
 40
0
 40
0
 40
0
 40
1
 40
1
 40
1
 40
1
 10
327.247170
 20
1467.752040
 30
0.0
 10
327.247170
 20
1470.563080
 30
0.0
 10
326.165120
 20
1472.506110
 30
0.0
 10
325.063810
 20
1472.279380
 30
0.0
  0
SPLINE
  5
436
100
AcDbEntity
  8
Ebene_1
 62
1
100
AcDbSpline
 70
8
 71
3
 72
8
 73
4
 74
0
 40
0
 40
0
 40
0
 40
0
 40
1
 40
1
 40
1
 40
1
 10
325.063810
 20
1472.279380
 30
0.0
 10
321.686890
 20
1471.584160
 30
0.0
 10
322.547560
 20
1465.600210
 30
0.0
 10
322.547560
 20
1461.571060
 30
0.0
  0
SPLINE
  5
437
100
AcDbEntity
  8
Ebene_1
 62
1
100
AcDbSpline
 70
8
 71
3
 72
8
 73
4
 74
0
 40
0
 40
0
 40
0
 40
0
 40
1
 40
1
 40
1
 40
1
 10
322.547560
 20
1461.571060
 30
0.0
 10
321.711740
 20
1464.129500
 30
0.0
 10
322.199710
 20
1463.644380
 30
0.0
 10
321.471810
 20
1467.679700
 30
0.0
  0
SPLINE
  5
438
100
AcDbEntity
  8
Ebene_1
 62
1
100
AcDbSpline
 70
8
 71
3
 72
8
 73
4
 74
0
 40
0
 40
0
 40
0
 40
0
 40
1
 40
1
 40
1
 40
1
 10
321.471810
 20
1467.679700
 30
0.0
 10
321.066820
 20
1469.798250
 30
0.0
 10
321.510310
 20
1471.428230
 30
0.0
 10
320.711440
 20
1471.809390
 30
0.0
  0
SPLINE
  5
439
100
AcDbEntity
  8
Ebene_1
 62
1
100
AcDbSpline
 70
8
 71
3
 72
8
 73
4
 74
0
 40
0
 40
0
 40
0
 40
0
 40
1
 40
1
 40
1
 40
1
 10
320.711440
 20
1471.809390
 30
0.0
 10
320.445160
 20
1471.936490
 30
0.0
 10
318.563150
 20
1471.529930
 30
0.0
 10
318.373330
 20
1471.307140
 30
0.0
  0
SPLINE
  5
43a
100
AcDbEntity
  8
Ebene_1
 62
1
100
AcDbSpline
 70
8
 71
3
 72
8
 73
4
 74
0
 40
0
 40
0
 40
0
 40
0
 40
1
 40
1
 40
1
 40
1
 10
318.373330
 20
1471.307140
 30
0.0
 10
316.892030
 20
1469.568600
 30
0.0
 10
316.171510
 20
1463.390550
 30
0.0
 10
317.153380
 20
1461.150200
 30
0.0
  0
SPLINE
  5
43b
100
AcDbEntity
  8
Ebene_1
 62
1
100
AcDbSpline
 70
8
 71
3
 72
8
 73
4
 74
0
 40
0
 40
0
 40
0
 40
0
 40
1
 40
1
 40
1
 40
1
 10
317.153380
 20
1461.150200
 30
0.0
 10
315.239910
 20
1460.747850
 30
0.0
 10
316.210600
 20
1462.552350
 30
0.0
 10
316.240090
 20
1466.143310
 30
0.0
  0
SPLINE
  5
43c
100
AcDbEntity
  8
Ebene_1
 62
1
100
AcDbSpline
 70
8
 71
3
 72
8
 73
4
 74
0
 40
0
 40
0
 40
0
 40
0
 40
1
 40
1
 40
1
 40
1
 10
316.240090
 20
1466.143310
 30
0.0
 10
316.240090
 20
1469.313550
 30
0.0
 10
315.144080
 20
1471.128570
 30
0.0
 10
313.756520
 20
1471.129060
 30
0.0
  0
SPLINE
  5
43d
100
AcDbEntity
  8
Ebene_1
 62
1
100
AcDbSpline
 70
8
 71
3
 72
8
 73
4
 74
0
 40
0
 40
0
 40
0
 40
0
 40
1
 40
1
 40
1
 40
1
 10
313.756520
 20
1471.129060
 30
0.0
 10
312.923990
 20
1471.129350
 30
0.0
 10
311.986650
 20
1470.476410
 30
0.0
 10
311.117920
 20
1469.070780
 30
0.0
  0
SPLINE
  5
43e
100
AcDbEntity
  8
Ebene_1
 62
1
100
AcDbSpline
 70
8
 71
3
 72
8
 73
4
 74
0
 40
0
 40
0
 40
0
 40
0
 40
1
 40
1
 40
1
 40
1
 10
311.117920
 20
1469.070780
 30
0.0
 10
310.620140
 20
1468.265350
 30
0.0
 10
310.480270
 20
1467.089780
 30
0.0
 10
310.574290
 20
1465.847210
 30
0.0
  0
SPLINE
  5
43f
100
AcDbEntity
  8
Ebene_1
 62
1
100
AcDbSpline
 70
8
 71
3
 72
8
 73
4
 74
0
 40
0
 40
0
 40
0
 40
0
 40
1
 40
1
 40
1
 40
1
 10
310.574290
 20
1465.847210
 30
0.0
 10
310.731440
 20
1463.793020
 30
0.0
 10
311.177410
 20
1460.895760
 30
0.0
 10
310.166260
 20
1460.960950
 30
0.0
  0
SPLINE
  5
440
100
AcDbEntity
  8
Ebene_1
 62
1
100
AcDbSpline
 70
8
 71
3
 72
8
 73
4
 74
0
 40
0
 40
0
 40
0
 40
0
 40
1
 40
1
 40
1
 40
1
 10
310.166260
 20
1460.960950
 30
0.0
 10
309.850970
 20
1462.823240
 30
0.0
 10
310.222260
 20
1464.053990
 30
0.0
 10
310.102260
 20
1465.748960
 30
0.0
  0
LWPOLYLINE
  5
441
100
AcDbEntity
  8
Ebene_1
 62
1
100
AcDbPolyline
 90
1
 70
1
 10
394.766070
 20
1551.084910
 30
0.0
  0
LWPOLYLINE
  5
442
100
AcDbEntity
  8
Ebene_1
 62
1
100
AcDbPolyline
 90
1
 70
1
 10
310.102260
 20
1465.748960
 30
0.0
  0
ENDSEC
  0
SECTION
  2
OBJECTS
  0
DICTIONARY
  5
C
330
0
100
AcDbDictionary
  3
ACAD_GROUP
350
D
  3
ACAD_MLINESTYLE
350
17
  0
DICTIONARY
  5
D
330
C
100
AcDbDictionary
  0
DICTIONARY
  5
1A
330
C
100
AcDbDictionary
  0
DICTIONARY
  5
17
330
C
100
AcDbDictionary
  3
STANDARD
350
18
  0
DICTIONARY
  5
19
330
C
100
AcDbDictionary
  0
ENDSEC
  0
EOF
